Five Finger Death Punch Tabs

White Knuckles

1 versions

TAB

            -------------------------------------------------------------------------------
			     White Knuckles - Five Finger Death Punch
-------------------------------------------------------------------------------
Tabbed by: Brandon_pie	
Email: Brandon_pie1@hotmail.com

Tuning: Drop B  (B F# B E G# C#)


  Verse
e|---------------------------------------------------------------------------|
B|---------------------------------------------------------------------------|
G|---------------------------------------------------------------------------|
D|-10--12--0--0--7--8--0--0--5--7--0--0--3--5--0--0--3--3--2--0--3--3--2--0--|
A|-10--12--0--0--7--8--0--0--5--7--0--0--3--5--0--0--3--3--2--0--3--3--2--0--|
E|-10--12--0--0--7--8--0--0--5--7--0--0--3--5--0--0--3--3--2--0--3--3--2--0--| x8

e|---------------------------------------------------------------------------|
B|---------------------------------------------------------------------------|
G|---------------------------------------------------------------------------|
D|-10--12--7--8--5--7--3--5--0--0--3--3--2--0--3--3--2--0--------------------|
A|-10--12--7--8--5--7--3--5--0--0--3--3--2--0--3--3--2--0--------------------|
E|-10--12--7--8--5--7--3--5--0--0--3--3--2--0--3--3--2--0--------------------| x8
  
  Chorus
e|---------------------------------------------------------------------------|
B|---------------------------------------------------------------------------|
G|---------------------------------------------------------------------------|
D|-0--0--0--0--3--3--3--3--5--5--5--5--8--8--8--8----------------------------|
A|-0--0--0--0--3--3--3--3--5--5--5--5--8--8--8--8----------------------------|
E|-0--0--0--0--3--3--3--3--5--5--5--5--8--8--8--8----------------------------| x2

  Verse
e|---------------------------------------------------------------------------|
B|---------------------------------------------------------------------------|
G|---------------------------------------------------------------------------|
D|-10--12--0--0--7--8--0--0--5--7--0--0--3--5--0--0--3--3--2--0--3--3--2--0--|
A|-10--12--0--0--7--8--0--0--5--7--0--0--3--5--0--0--3--3--2--0--3--3--2--0--|
E|-10--12--0--0--7--8--0--0--5--7--0--0--3--5--0--0--3--3--2--0--3--3--2--0--| x4


e|---------------------------------------------------------------------------|
B|---------------------------------------------------------------------------|
G|---------------------------------------------------------------------------|
D|-10--12--7--8--5--7--3--5--0--0--3--3--2--0--3--3--2--0--------------------|
A|-10--12--7--8--5--7--3--5--0--0--3--3--2--0--3--3--2--0--------------------|
E|-10--12--7--8--5--7--3--5--0--0--3--3--2--0--3--3--2--0--------------------| x8


  Chorus
e|---------------------------------------------------------------------------|
B|---------------------------------------------------------------------------|
G|---------------------------------------------------------------------------|
D|-0--0--0--0--3--3--3--3--5--5--5--5--8--8--8--8----------------------------|
A|-0--0--0--0--3--3--3--3--5--5--5--5--8--8--8--8----------------------------|
E|-0--0--0--0--3--3--3--3--5--5--5--5--8--8--8--8----------------------------| x4

  Drum Part


  Bridge
e|--------------------------------------------------------------------------------|
B|--------------------------------------------------------------------------------|
G|--------------------------------------------------------------------------------|
D|-0--0--2--3--0--0--0--3--3--2--0--3--3--2--0--0--0--2--3--0--0--0--3--3--2--0---|
A|-0--0--2--3--0--0--0--3--3--2--0--3--3--2--0--0--0--2--3--0--0--0--3--3--2--0---|
E|-0--0--2--3--0--0--0--3--3--2--0--3--3--2--0--0--0--2--3--0--0--0--3--3--2--0--2| x8

  Chorus (solo)
e|---------------------------------------------------------------------------|
B|---------------------------------------------------------------------------|
G|---------------------------------------------------------------------------|
D|-0--0--0--0--3--3--3--3--5--5--5--5--8--8--8--8----------------------------|
A|-0--0--0--0--3--3--3--3--5--5--5--5--8--8--8--8----------------------------|
E|-0--0--0--0--3--3--3--3--5--5--5--5--8--8--8--8----------------------------| x4

  Verse
e|---------------------------------------------------------------------------|
B|---------------------------------------------------------------------------|
G|---------------------------------------------------------------------------|
D|-10--12--0--0--7--8--0--0--5--7--0--0--3--5--0--0--3--3--2--0--3--3--2--0--|
A|-10--12--0--0--7--8--0--0--5--7--0--0--3--5--0--0--3--3--2--0--3--3--2--0--|
E|-10--12--0--0--7--8--0--0--5--7--0--0--3--5--0--0--3--3--2--0--3--3--2--0--| x2

e|---------------------------------------------------------------------------|
B|---------------------------------------------------------------------------|
G|---------------------------------------------------------------------------|
D|-10--12--7--8--5--7--3--5--0--0--3--3--2--0--3--3--2--0--------------------|
A|-10--12--7--8--5--7--3--5--0--0--3--3--2--0--3--3--2--0--------------------|
E|-10--12--7--8--5--7--3--5--0--0--3--3--2--0--3--3--2--0--------------------| x2

  Chorus
e|---------------------------------------------------------------------------|
B|---------------------------------------------------------------------------|
G|---------------------------------------------------------------------------|
D|-0--0--0--0--3--3--3--3--5--5--5--5--8--8--8--8----------------------------|
A|-0--0--0--0--3--3--3--3--5--5--5--5--8--8--8--8----------------------------|
E|-0--0--0--0--3--3--3--3--5--5--5--5--8--8--8--8----------------------------| x4

  Verse
e|---------------------------------------------------------------------------|
B|---------------------------------------------------------------------------|
G|---------------------------------------------------------------------------|
D|-10--12--0--0--7--8--0--0--5--7--0--0--3--5--0--0--3--3--2--0--3--3--2--0--|
A|-10--12--0--0--7--8--0--0--5--7--0--0--3--5--0--0--3--3--2--0--3--3--2--0--|
E|-10--12--0--0--7--8--0--0--5--7--0--0--3--5--0--0--3--3--2--0--3--3--2--0--| x1

That is the whole song. It is pretty fast. Have Fun    

Added On December 16th, 2013

SHARE

Comments

blog comments powered by Disqus

ADVERTISEMENT