Fleetwood Mac Tabs

My Dream

1 versions

TAB

            -------------------------------------------------------------------------------
                            My Dream - Fleetwood Mac
-------------------------------------------------------------------------------
Tabbed by: David K.
E-mail: thischarmingman13 @ gmail (dot) com

Tuning: standard

During the chorus, the 11th fret on the B string is bent slightly and repeatedly.
It was hard to tab out but it's easy to figure out by ear.
Right below in the intro, the 11th fret on the D is bent about a half step then dropped back. 
Please let me know if it needs any changes. Thanks!


e|---------------------------------------------------------------------------|
B|---------------------------------------------------------------------------|
G|------------8-9-----------------------------11p10~-11p10---~9---/11-8------|
D|-8-9-11-/11-----11-9-8----9--11^~------8-9--------------11------------11---|
A|---------------------------------------------------------------------------|
E|---------------------------------------------------------------------------|

e|---------------------------------------------------------------------------|
B|---------------------------------------------------------------------------|
G|---------------------------------------------------------------------------|
D|-9/12----9-8-11~-----------------------------------------------------------|
A|---------------------------------------------------------------------------|
E|---------------------------------------------------------------------------|

Chorus
e|---------------------------------------------------------------------------|
B|----------/11-11-9--11~-9---/11-11-9--11~-9-------------------2~-----------|
G|--------------------------------------------/13-13-11--------3-------------|
D|-44-66-7---11-11-9-----------11-11-9------------------------4--------------|
A|---------------------------------------------------------------------------|
E|---------------------------------------------------------------------------|

Chorus                                                 (distortion/strum)
e|------------------------------------------------------------------2--------|
B|----------/11-11-9--11~-9---/11-11-9--11~-9-----------------------2-----2~-|
G|--------------------------------------------/13-13-11----6--------2----3---|
D|-44-66-7---11-11-9-----------11-11-9-------------------8-----9----0---4----|
A|-----------------------------------------------------------7---------------|
E|---------------------------------------------------------------------------|


higher key

e|-------------------11-12-------------11----------------10-9----------------|
B|----11-12-14-12/14-------14-12-11-------12---------------------------------|
G|-11--------------------------------11------11-------11---------------------|
D|----------------------------------------------13p12------------------------|
A|---------------------------------------------------------------------------|
E|---------------------------------------------------------------------------|

e|----------14p13~-14p13----12~-------14-11----------------------------------|
B|-----11-----------------14-----------------14-12/15-14-12p11/14~-----------|
G|-11----11------------------------11----------------------------------------|
D|---------------------------------------------------------------------------|
A|---------------------------------------------------------------------------|
E|---------------------------------------------------------------------------|

Chorus
e|---------------------------------------------------------------------------|
B|----------/11-11-9--11~-9---/11-11-9--11~-9-------------------2~-----------|
G|--------------------------------------------/13-13-11--------3-------------|
D|-44-66-7---11-11-9-----------11-11-9------------------------4--------------|
A|---------------------------------------------------------------------------|
E|---------------------------------------------------------------------------|

Chorus                                                 (distortion/strum)
e|------------------------------------------------------------------2--------|
B|----------/11-11-9--11~-9---/11-11-9--11~-9-----------------------2-----2~-|
G|--------------------------------------------/13-13-11----6--------2----3---|
D|-44-66-7---11-11-9-----------11-11-9-------------------8-----9----0---4----|
A|-----------------------------------------------------------7---------------|
E|---------------------------------------------------------------------------|

e|-----------------------------------11--------------------------------------|
B|----11-12-14--------------------------12-----------10--9-------------------|
G|-11----------10-----9-----------11-------11----12--------------------------|
D|-----------------11----11-9-8---------------13-----------------------------|
A|---------------------------------------------------------------------------|
E|---------------------------------------------------------------------------|
                                         (half note bend)
e|---------------------------------------------------------------------------|
B|---------------------------------------------------------------------------|
G|------------8-9---------/11-8----------------------------------------------|
D|-8-9-11-/11-----11-9-8--------11-9--12--11^~-------------------------------|
A|---------------------------------------------------------------------------|
E|---------------------------------------------------------------------------|

e|----------10--------------7-------------2~---------------------------------|
B|-------10----10---------7---7---------2------------------------------------|
G|----11----------11----8-------8-----3--------------------------------------|
D|-12-----------------9-------------4----------------------------------------|
A|---------------------------------------------------------------------------|
E|---------------------------------------------------------------------------|

************************************

| /   slide up
| \   slide down
| h   hammer-on
| p   pull-off
| ~   vibrato
| +   harmonic
| x   Mute note
| b   Bend
| pb  Pre-bend
| br  Bend release
| pbr Pre-bend release
| brb Bend release bend

************************************    

Added On December 16th, 2013

SHARE

Comments

blog comments powered by Disqus

ADVERTISEMENT