Flight Of The Conchords Tabs

Frodo

3 versions

TAB

            Frodo Tab by Flight Of The Conchords


Frodo
Flight of the Conchords
Tabbed by: Ian

This is an awesome song, i think it's pretty close to correct. Have Fun Playing it.

Intro:

E|-----------------------------------------------|
B|------1----------1---------0-----------0-------|
G|-----2----------2---------2-----------2--------|
D|----2----------2---------2-----------2---------|
A|---0-------------------------------------------|
E|--------------3---------2-----------1----------|

Then..

E|-------0--------0-------0-------0---------|
B|-----1---1----1---1---1---1---1---1-------|
G|---2--------0-----------------------------|
D|---------------------4-------3------------|      X5
A|------------------------------------------|
E|------------------------------------------|

I'm not quite sure about this part but i think it's right...
E|-------2--5--2---------2--5--2-----|
B|-----3---------3-----3---------3---|
G|---2------------2--2------------2--|    Play that a few times
D|-----------------------------------|
A|-----------------------------------|
E|-----------------------------------|

Then go into this...
E|----------------------------------|
B|----------------------------------|
G|---5-5-5---5-5-5---5-5-5---5-3-3--|
D|---5-5-5---5-5-5---5-5-5---5-3-3--|  Several times then back to...
A|---7-7-7---5-5-5---4-4-4---3-3-3--|
E|----------------------------------|

E|-----------------------------------------------|
B|------1----------1---------0-----------0-------|
G|-----2----------2---------2-----------2--------|
D|----2----------2---------2-----------2---------|  For a While Then...
A|---0-------------------------------------------|
E|--------------3---------2-----------1----------|

Then go into this
E|--------------------------|
B|--------------------------|
G|---5-5---5-5---5-5---5-3--|
D|---5-5---5-5---5-5---5-3--|
A|---7-7---5-5---4-4---3-3--|
E|--------------------------|

Back here once again.
E|-----------------------------------------------|
B|------1----------1---------0-----------0-------|
G|-----2----------2---------2-----------2--------|
D|----2----------2---------2-----------2---------|  Play through a few tmes
A|---0-------------------------------------------|
E|--------------3---------2-----------1----------|

Then finish with this
E|--------------------------|
B|--------------------------|
G|---5-5---5-5---5-5---5-3--|
D|---5-5---5-5---5-5---5-3--|
A|---7-7---5-5---4-4---3-3--|
E|--------------------------|    

Added On December 4th, 2013

SHARE

Comments

blog comments powered by Disqus

VERSIONS

ADVERTISEMENT