Flobots Tabs

Handlebars Intro

2 versions

TAB

            Heres the intro to handlebars by flobots, in standard tuning.It's really the whole song, 
keep playing it over and over. Enjoy!


e:------5---------------------------------------------------6----------10----|
B:---6-----6--------5--------------6---------8-----------6---------11------11|
G:7--------------5-----5--------7---------9-----9-----7--------12------------|
D:------------7--------------8--------10-----------8-------------------------|
A:------------------------8--------------------------------------------------|
E:---------------------------------------------------------------------------|
PM..........................................................................

e:----------8------------5-------|
B:------10-----10-----8----------|
G:--10-------------9-------------|
D:--------------------------7----|
A:-------------------------------|
E:-------------------------------|

  ...............................    

Added On December 16th, 2013

SHARE

Comments

blog comments powered by Disqus

VERSIONS

ADVERTISEMENT