Foo Fighters Tabs

Damn You Damn Everyone

2 versions

TAB

            Damn You Damn Everyone Tab by Foo Fighters


Song: Damn You Damn Everyone
Artist: Foo Fighters
Album: None

This song was played during the "There Is Nothing Left To Lose" era. They played
it a few times exclusively in concert. Being the Foo fanatic I am, I had no way
to listen to the song, but to download it (it is sacraligous to me though). The
song's guitar is not that great. The rhythm can get boring, and it repitive,
which is probably why it didnt make any album. I like the lyrics of the song. You
know, one of those good break-up songs.


(Standard Tuning)


Verse/Chorus
e|-------------------------------------------------------------------------|
B|-------------------------------------------------------------------------|
G|-------------------------------------5-5-5-5-5-5-5-5----4-4-4-4-4-4-4-4--|
D|-------------------------------------3-3-3-3-3-3-3-3----2-2-2-2-2-2-2-2--|
A|--7-7-7-7-7-7-7-7--5-5-5-5-5-5-5-5---------------------------------------|
E|--5-5-5-5-5-5-5-5--3-3-3-3-3-3-3-3---------------------------------------|

e|-----------------------------------|
B|-----------------------------------|
G|-----------------------------------|
D|--7-7-7-7-7-7-7-7-7-7-7-7-7-7-7-7--|
A|--5-5-5-5-5-5-5-5-5-5-5-5-5-5-5-5--|
E|-----------------------------------|


Bridge
e|---------------------------------------------------------------------------|
B|---------------------------------------------------------------------------|
G|--5-5-5-5-5-5-5-5-----4-4-4-4-4-4-4-4--------------------------------------|
D|--3-3-3-3-3-3-3-3-----2-2-2-2-2-2-2-2-----7-7-7-7-7-7-7-7-7-7-7-7-7-7-7-7--|
A|--3-3-3-3-3-3-3-3-----2-2-2-2-2-2-2-2-----5-5-5-5-5-5-5-5-5-5-5-5-5-5-5-5--|
E|---------------------------------------------------------------------------|


And for the solo? It is something like:

Solo (guitar 2 plays verse/chorus)
e|----------------------------------------------------------------------------|
B|----------------------------------------------------------------------------|
G|--6-6-4-9-11-5-4-2-4-2---5-4-2-0-4-2---6-6-4-9-11-5-4-2-4-2---5-4-2-0-4^-2--|
D|-----------------------5------------------------------------5---------------|
A|----------------------------------------------------------------------------|
E|----------------------------------------------------------------------------|

And the second part:
e|----------------------------------------------------------|
B|----------------7-----------------------------------------|
G|--6--6----------------------------------5-----------------|
D|---------9--7------9---7--9--7-------------9--7--5--9--7--|
A|----------------------------------------------------------|
E|----------------------------------------------------------|

And you know, play the bridge again and then the chorus, and the outro goes:

e|----------------------|
B|----------------------|
G|----------------------|
D|--4^------------------|
A|-----5-3-3-3-3-3-3-3--|
E|----------------------|

^ being the bend.

If you dont like this tab, I am sorry, I only got the live version which was
unclear. But if you still have any questions, email me at incubusdude17@hotmail.com    

Added On December 4th, 2013

SHARE

Comments

blog comments powered by Disqus

VERSIONS

ADVERTISEMENT