Foo Fighters Tabs

Darlin Nikki

1 versions

TAB

            Band: Foo Fighters
Song: Darlin' Nikki
Tabber: RUairi Coleman

Dave grohls my da... lol Enjoy :D

Intro

 Guitar 1 & 3
e|----------------------------------------------------------------|
B|----------------------------------------------------------------|
G|---8---6---4---6---7---4---0-----8---6---4---6---8-----4--------|
D|------------------------------------------------------------4---|
A|----------------------------------------------------------------|
E|----------------------------------------------------------------|

 Guitar 2
e|-------------------------------------------------------------------|
B|-------------------------------------------------------------------|
G|-------------------------------------------------------------------|
D|---9~---------------5~------------9~-------------------------4~--*-|
A|-------------------------------------------------------------------|
E|-------------------------------------------------------------------|

X2

 Guitar 2
e|-------------------------------------------------------------|
B|-------------------------------------------------------------|
G|-------------------------------------------------------------|
D|---9-----------------------------------------5---------------|
A|-------------------------------------------------------------|
E|-------------------------------------------------------------|
   I new a girl called nikki i guess u could say she was a sex freak

e|-------------------------------------------------------------|
B|-------------------------------------------------------------|
G|-------------------------------------------------------------|
D|---2-----------------------------------9---------------8-----|
A|-------------------------------------------------------------|
E|-------------------------------------------------------------|
   I met her in a hotel louby masterbating with a magazine


e|--------------------------------------------------|
B|--------------------------------------------------|
G|--------------------------------------------------|
D|-----------5------------------------------4---x---|
A|--------------------------------------------------|
E|--------------------------------------------------|
   She said how'd like to waste some time an i could not resise when i saw little nikki grind

Chorus

 Guitar 1
e|-------------------------------------------------------------------------|
B|-------------------------------------------------------------------------|
G|---8-8-8-8/11\8-x-8-8-8/11-8/14-14-14-14-14-14-14-14-x--x--x--x--x--x----|
D|---x-x-x-x-x--x-x-x-x-x-x--x-x--x--x--x--x--x--x--x--x--x--x--x--x--x----|
A|---6-6-6-6/9-\6-x-6-6-6/9--6/12-12-12-12-12-12-12-12-x--x--x--x--x--x---|
E|-------------------------------------------------------------------------|

e|-------------------------------|
B|-------------------------------|
G|---8-8-8-8/11\8-x-8-8-8/11-8---|
D|---x-x-x-x-x--x-x-x-x-x-x--x---|
A|---6-6-6-6/9-\6-x-6-6-6/9--6---|
E|-------------------------------|

 Guitar 2
e|---------------------------------------------------------------------------------------------|
B|---------------------------------------------------------------------------------------------|
G|---8-8-8-8-8-8-8-8/11-11-11-11-11-11-11-11/14-14-14-14-14-14-14-14\13-13-13-13-13-13-13-13---|
D|---x-x-x-x-x-x-x-x-x--x--x--x--x--x--x--x--x--x--x--x--x--x--x--x--x--x--x--x--x--x--x--x----|
A|---6-6-6-6-6-6-6-6/9--9--9--9--9--9--9--9-/12-12-12-12-12-12-12-12\11-11-11-11-11-11-11-11---|
E|---------------------------------------------------------------------------------------------|

e|---------------------------------------------|
B|---------------------------------------------|
G|---8-8-8-8-8-8-8-8/11-11-11-11-11-11-11-11---|
D|---x-x-x-x-x-x-x-x-x--x--x--x--x--x--x--x----|
A|---6-6-6-6-6-6-6-6/9--9--9--9--9--9--9--9----|
E|---------------------------------------------|

 Fill 1
e|---------------|
B|---7-----10----|
G|---9b----12b---|
D|---------------|
A|---------------|
E|---------------|

Verus

 Guitar 2
e|-------------------------------------------------------------|
B|-------------------------------------------------------------|
G|-------------------------------------------------------------|
D|---9-----------------------------------------5---------------|
A|-------------------------------------------------------------|
E|-------------------------------------------------------------|
   She took me to her castle and i just couldnt believe my eyes

e|-------------------------------------------------------------|
B|-------------------------------------------------------------|
G|-------------------------------------------------------------|
D|---2-----------------------------------9---------------8-----|
A|-------------------------------------------------------------|
E|-------------------------------------------------------------|
   She had so many devices everything that money could buy


e|--------------------------------------------------|
B|--------------------------------------------------|
G|--------------------------------------------------|
D|-----------5------------------------------4---x---|
A|--------------------------------------------------|
E|--------------------------------------------------|
  She said sign your name on the dotted like, the lights when out and nikki started to grinds

Chorus

 Guitar 1
e|-------------------------------------------------------------------------|
B|-------------------------------------------------------------------------|
G|---8-8-8-8/11\8-x-8-8-8/11-8/14-14-14-14-14-14-14-14-x--x--x--x--x--x----|
D|---x-x-x-x-x--x-x-x-x-x-x--x-x--x--x--x--x--x--x--x--x--x--x--x--x--x----|
A|---6-6-6-6/9-\6-x-6-6-6/9--6/12-12-12-12-12-12-12-12-x--x--x--x--x--x----|
E|-------------------------------------------------------------------------|

e|-------------------------------|
B|-------------------------------|
G|---8-8-8-8/11\8-x-8-8-8/11-8---|
D|---x-x-x-x-x--x-x-x-x-x-x--x---|
A|---6-6-6-6/9-\6-x-6-6-6/9--6---|
E|-------------------------------|

 Guitar 2
e|---------------------------------------------------------------------------------------------|
B|---------------------------------------------------------------------------------------------|
G|---8-8-8-8-8-8-8-8/11-11-11-11-11-11-11-11/14-14-14-14-14-14-14-14\13-13-13-13-13-13-13-13---|
D|---x-x-x-x-x-x-x-x-x--x--x--x--x--x--x--x--x--x--x--x--x--x--x--x--x--x--x--x--x--x--x--x----|
A|---6-6-6-6-6-6-6-6/9--9--9--9--9--9--9--9-/12-12-12-12-12-12-12-12\11-11-11-11-11-11-11-11---|
E|---------------------------------------------------------------------------------------------|

e|---------------------------------------------|
B|---------------------------------------------|
G|---8-8-8-8-8-8-8-8/11-11-11-11-11-11-11-11---|
D|---x-x-x-x-x-x-x-x-x--x--x--x--x--x--x--x----|
A|---6-6-6-6-6-6-6-6/9--9--9--9--9--9--9--9----|
E|---------------------------------------------|

 Fill 2
e|---------------|
B|---------------|
G|---Dont Know---|
D|---------------|
A|---------------|
E|---------------|

Verus

 Guitar 2
e|-------------------------------------------------------------------|
B|-------------------------------------------------------------------|
G|-------------------------------------------------------------------|
D|---9~---------------5~------------9~-------------------------4~--*-|
A|-------------------------------------------------------------------|
E|-------------------------------------------------------------------|

X2

 Guitar 2
e|-------------------------------------------------------------|
B|-------------------------------------------------------------|
G|-------------------------------------------------------------|
D|---9-----------------------------------------5---------------|
A|-------------------------------------------------------------|
E|-------------------------------------------------------------|
   The castle started spinning or i guess it was my brian, i cant tell you what she

e|-------------------------------------------------------------|
B|-------------------------------------------------------------|
G|-------------------------------------------------------------|
D|---2-----------------------------------9---------------8-----|
A|-------------------------------------------------------------|
E|-------------------------------------------------------------|
   did to me bt my body will never be the same


e|--------------------------------------------------|
B|--------------------------------------------------|
G|--------------------------------------------------|
D|-----------5------------------------------4---x---|
A|--------------------------------------------------|
E|--------------------------------------------------|
  Ahhhhhhhhhh love it and we'll kick your behind, show u no mercy but she'll

Chorus

 Guitar 1
e|-------------------------------------------------------------------------|
B|-------------------------------------------------------------------------|
G|---8-8-8-8/11\8-x-8-8-8/11-8/14-14-14-14-14-14-14-14-x--x--x--x--x--x----|
D|---x-x-x-x-x--x-x-x-x-x-x--x-x--x--x--x--x--x--x--x--x--x--x--x--x--x----|
A|---6-6-6-6/9-\6-x-6-6-6/9--6/12-12-12-12-12-12-12-12-x--x--x--x--x--x---|
E|-------------------------------------------------------------------------|

e|-------------------------------|
B|-------------------------------|
G|---8-8-8-8/11\8-x-8-8-8/11-8---|
D|---x-x-x-x-x--x-x-x-x-x-x--x---|
A|---6-6-6-6/9-\6-x-6-6-6/9--6---|
E|-------------------------------|

 Guitar 2
e|---------------------------------------------------------------------------------------------|
B|---------------------------------------------------------------------------------------------|
G|---8-8-8-8-8-8-8-8/11-11-11-11-11-11-11-11/14-14-14-14-14-14-14-14\13-13-13-13-13-13-13-13---|
D|---x-x-x-x-x-x-x-x-x--x--x--x--x--x--x--x--x--x--x--x--x--x--x--x--x--x--x--x--x--x--x--x----|
A|---6-6-6-6-6-6-6-6/9--9--9--9--9--9--9--9-/12-12-12-12-12-12-12-12\11-11-11-11-11-11-11-11---|
E|---------------------------------------------------------------------------------------------|

e|---------------------------------------------|
B|---------------------------------------------|
G|---8-8-8-8-8-8-8-8/11-11-11-11-11-11-11-11---|
D|---x-x-x-x-x-x-x-x-x--x--x--x--x--x--x--x----|
A|---6-6-6-6-6-6-6-6/9--9--9--9--9--9--9--9----|
E|---------------------------------------------|

 Fill 3
e|-------|
B|-------|
G|---9---|
D|---7---|
A|-------|
E|-------|

Verus

 Guitar 2
e|-------------------------------------------------------------------|
B|-------------------------------------------------------------------|
G|-------------------------------------------------------------------|
D|---9~---------------5~------------9~-------------------------4~--*-|
A|-------------------------------------------------------------------|
E|-------------------------------------------------------------------|

X2

 Guitar 2
e|-------------------------------------------------------------|
B|-------------------------------------------------------------|
G|-------------------------------------------------------------|
D|---9-----------------------------------------5---------------|
A|-------------------------------------------------------------|
E|-------------------------------------------------------------|
   I woke up the next morning, Nikki wasn't there

e|-------------------------------------------------------------|
B|-------------------------------------------------------------|
G|-------------------------------------------------------------|
D|---2-----------------------------------9---------------8-----|
A|-------------------------------------------------------------|
E|-------------------------------------------------------------|
   I looked all over and all i found was a phone number on the stairs


e|--------------------------------------------------|
B|--------------------------------------------------|
G|--------------------------------------------------|
D|-----------5------------------------------4---x---|
A|--------------------------------------------------|
E|--------------------------------------------------|
  It said thank you for a funky time, call me up when ever you wana grind

Chorus

 Guitar 1
e|-------------------------------------------------------------------------|
B|-------------------------------------------------------------------------|
G|---8-8-8-8/11\8-x-8-8-8/11-8/14-14-14-14-14-14-14-14-x--x--x--x--x--x----|
D|---x-x-x-x-x--x-x-x-x-x-x--x-x--x--x--x--x--x--x--x--x--x--x--x--x--x----|
A|---6-6-6-6/9-\6-x-6-6-6/9--6/12-12-12-12-12-12-12-12-x--x--x--x--x--x---|
E|-------------------------------------------------------------------------|

e|-------------------------------|
B|-------------------------------|
G|---8-8-8-8/11\8-x-8-8-8/11-8---|
D|---x-x-x-x-x--x-x-x-x-x-x--x---|
A|---6-6-6-6/9-\6-x-6-6-6/9--6---|
E|-------------------------------|

 Guitar 2
e|---------------------------------------------------------------------------------------------|
B|---------------------------------------------------------------------------------------------|
G|---8-8-8-8-8-8-8-8/11-11-11-11-11-11-11-11/14-14-14-14-14-14-14-14\13-13-13-13-13-13-13-13---|
D|---x-x-x-x-x-x-x-x-x--x--x--x--x--x--x--x--x--x--x--x--x--x--x--x--x--x--x--x--x--x--x--x----|
A|---6-6-6-6-6-6-6-6/9--9--9--9--9--9--9--9-/12-12-12-12-12-12-12-12\11-11-11-11-11-11-11-11---|
E|---------------------------------------------------------------------------------------------|

e|---------------------------------------------|
B|---------------------------------------------|
G|---8-8-8-8-8-8-8-8/11-11-11-11-11-11-11-11---|
D|---x-x-x-x-x-x-x-x-x--x--x--x--x--x--x--x----|
A|---6-6-6-6-6-6-6-6/9--9--9--9--9--9--9--9----|
E|---------------------------------------------|
  Play Chorus twice


e|--------------------|
B|---Cool Drum Fill---|
G|---Cool Drum Fill---|
D|---Cool Drum Fill---|
A|---Cool Drum Fill---|
E|--------------------|

Outro

  Guitar 1
e|-----------------------------------------------------------------------|
B|-----------------------------------------------------------------------|
G|---8-8-8-8-8\--------14-14-14-14-14-14-14-14-14-14-14-14-14-14-14-14---|
D|---x-x-x-x-x---------x--x--x--x--x--x--x--x--x--x--x--x--x--x--x--x----|
A|---6-6-6-6-6\--------12-12-12-12-12-12-12-12-12-12-12-12-12-12-11-12---|
E|-----------------------------------------------------------------------|

e|-----------------------------------------------------------------------|
B|-----------------------------------------------------------------------|
G|---8-8-8-8-8\--------11-11-11-11-11-11-11-11-13-13-13-13-13-13-13-13---|
D|---x-x-x-x-x---------x--x--x--x--x--x--x--x--x--x--x--x--x--x--x--x----|
A|---6-6-6-6-6\--------9--9--9--9--9--9--9--9--11-11-11-11-11-11-11-11---|
E|-----------------------------------------------------------------------|
  X4 then fades out the fouth time

Ok all fills and the solo are done but d second guitar

 Outro Fill 1
e|---------|
B|---------|
G|------|
D|---------|
A|---------|
E|---------|

 Outro Fill 2
e|-----------------|
B|-----------------|
G|---9b-r9---7-----|
D|---------9---9---|
A|-----------------|
E|-----------------|

 Outro Fill 3
e|---------|
B|---7-----|
G|---9b----|
D|---------|
A|---------|
E|---------|

 Ok after the last fill the solo's next, but i dont actually no how many times
 the pull off thingly is done soon just go crazy on it till the end of the song lol
 also ever so often throw in a bend the 16. If ya listen to the song you'll no what i mean

 Solo
e|--------------|
B|---16p14p12---|
G|--------------|
D|--------------|
A|--------------|
E|--------------|

Thats it, not great but hopefully helps ya's get the just of it!
Enjoy and please rate!    

Added On December 16th, 2013

SHARE

Comments

blog comments powered by Disqus

ADVERTISEMENT