Forever The Sickest Kids Tabs

Chin Up Kid

1 versions

TAB

            -----------------------------------------------------------------------------
                             Chin Up Kid - Forever The Sickest Kids
-----------------------------------------------------------------------------
Tabbed by: Ryan Bowles
E-mail: spacedcactus@gmail.com

Tuning: Drop D

This is my first tab and it isn't 100% accurate,
I tried to get as much correct as possible.
The pre-chorus has two ways to play it, you can 
either play it like I tabbed, or bend the octave 
instead of sliding up to it. Email me if you 
think I'm wrong and I'll go back and fix it.
I hope you enjoy!

New intro courtesy of Sam Roolez D00d

Intro
e|---------------------------------------|
b|---------------------------------------|
G|---------------------------------------|
D|--xx-7-xx-7-7-xx-5-xx-5h7--------------|
A|--xx-5-xx-5-5-xx-5-xx-5h7-----5*PH-----|
D|--xx-4-xx-4/5-xx-5-xx-5h7--00----------|
                             ..
e|---------------------------------------|
b|---------------------------------------|
G|---------------------------------------|
D|--xx-7-xx-7/9-xx-------------4~--------|
A|--xx-7-xx-7/9-xx--------0h4h5--------5~|
d|--xx-7-xx-7/9-xx---0h4h5--------0h5h7--|

e|---------------------------------------|
b|---------------------------------------|
G|---------------------------------------|
D|--xx-7-xx-7-7-xx-5-xx-5h7--------------|
A|--xx-5-xx-5-5-xx-5-xx-5h7-----5*PH-----|
D|--xx-4-xx-4/5-xx-5-xx-5h7--00----------|
                             ..
e|---------------------------------------|
b|---------------------------------------|
G|---------------------------------------|
D|--xx-7-xx-7/9-xx-----------------------|
A|--xx-7-xx-7/9-xx--------0h5h7-5~-------|
d|--xx-7-xx-7/9-xx---0h5h7----------00-7~|
                                    ..
                             
The Verse has a guitar part but I can't 
seem to pick it out. The part I could get starts
at

e|---------------------------------------|
b|---------------------------------------|
G|---------------------------------------|
D|--9-----------7---------0~------000000-|
A|--9-----------7---------0~------000000-|
E|--9-----------7---------0~------000000-|
  "I remember"                    ******


Pre-Chorus
e|---------------------------------------|
b|---------------------------------------|
G|-------------11-11-11-12-11~-11-12-11~-|
D|--7-7-5-5----x--x--x--x--x---x--x--x---|
A|--7-7-5-5----9--9--9--10-9~--9--10-9~--|
E|--7-7-5-5------------------------------|
  "You're just a boy"  

e|---------------------------------------|
b|---------------------------------------|
G|------------11-11-11-12-11-9-9-9-7-----|
D|-7-7-0-0----x--x--x--x--x--x-x-x-x-----|
A|-7-7-0-0----9--9--9--10-9--7-7-7-5-----|
E|-7-7-0-0-------------------------------|
  "She's just a girl"


e|---------------------------------------|
b|---------------------------------------|
G|-------------11-11-11-12-11~-11-12-11~-|
D|--7-7-5-5----x--x--x--x--x---x--x--x---|
A|--7-7-5-5----9--9--9--10-9~--9--10-9~--|-
E|--7-7-5-5------------------------------| -
  "You'll break her heart"                  -  I can't tell which one
                                            -   is actually played
e|---------------------------------------| -
b|---------------------------------------|-
G|-------------11-11-11-12-11~-11-12-11~-|
D|--7-7-9-5----x--x--x--x--x---x--x--x---|
A|--7-7-9-5----9--9--9--10-9~--9--10-9~--|
E|--7-7-9-5------------------------------|
  "You'll break her heart"  

e|---------------------------------------|
b|---------------------------------------|
G|------------11-11-11-12-11-9-9-9-7-----|
D|-7-7-0-0----x--x--x--x--x--x-x-x-x-----|
A|-7-7-0-0----9--9--9--10-9--7-7-7-5-----|
E|-7-7-0-0-------------------------------|
  "She'll wreck your world"

Chorus
e|---------------------------------------|
b|---------------------------------------|
G|-----------------------4-4-4-4-2-2-2-2-|
D|-7-7-7-5-5-5-5-5-5-5-5-4-4-4-4-2-2-2-2-|
A|-7-7-7-5-5-5-5-5-5-5-5-2-2-2-2-0-0-0-0-|
E|-7-7-7-5-5-5-5-5-5-5-5-----------------|
  "But life goes on"

e|---------------------------------------|
b|---------------------------------------|
G|-----------------4-4-4-4-2-2-2-2-------|
D|-5-5-5-5-5-5-5-5-4-4-4-4-2-2-2-2-------|
A|-5-5-5-5-5-5-5-5-2-2-2-2-0-0-0-0-------|
E|-5-5-5-5-5-5-5-5-----------------------|
  "Young love that lasts"

Verse 2
e|---------------------------------------|
b|---------------------------------------|
G|---------------------------------------|
D|-----------7-7---------55--55--55--55--|
A|----7h9-5~-7-7---------55--55--55--55--|
E|-7h9-------7-7---------55--55--55--55--|
                         **  **  **  **
                     "Keeping you waiting"

e|----------------------------------------|
b|----------------------------------------|
G|----------------------------------------|
D|-9-9-9------7-7-7------0-0-0------0-----|
A|-9-9-9-x14--7-7-7-x14--0-0-0-x14--0-x16-|
E|-9-9-9------7-7-7------0-0-0------0-----|
        *          *            *
  "I remember"                    

Pre-Chorus
e|---------------------------------------|
b|---------------------------------------|
G|-------------11-11-11-12-11~-11-12-11~-|
D|--7-7-5-5----x--x--x--x--x---x--x--x---|
A|--7-7-5-5----9--9--9--10-9~--9--10-9~--|
E|--7-7-5-5------------------------------|
  "You're just a boy"  

e|---------------------------------------|
b|---------------------------------------|
G|------------11-11-11-12-11-9-9-9-7-----|
D|-7-7-0-0----x--x--x--x--x--x-x-x-x-----|
A|-7-7-0-0----9--9--9--10-9--7-7-7-5-----|
E|-7-7-0-0-------------------------------|
  "She's just a girl"


e|---------------------------------------|
b|---------------------------------------|
G|-------------11-11-11-12-11~-11-12-11~-|
D|--7-7-5-5----x--x--x--x--x---x--x--x---|
A|--7-7-5-5----9--9--9--10-9~--9--10-9~--|-
E|--7-7-5-5------------------------------| -
  "You'll break her heart"                  -  I can't tell which one
                                            -   is actually played
e|---------------------------------------| -
b|---------------------------------------|-
G|-------------11-11-11-12-11~-11-12-11~-|
D|--7-7-9-5----x--x--x--x--x---x--x--x---|
A|--7-7-9-5----9--9--9--10-9~--9--10-9~--|
E|--7-7-9-5------------------------------|
  "You'll break her heart"  

e|---------------------------------------|
b|---------------------------------------|
G|------------11-11-11-12-11-9-9-9-7-----|
D|-7-7-0-0----x--x--x--x--x--x-x-x-x-----|
A|-7-7-0-0----9--9--9--10-9--7-7-7-5-----|
E|-7-7-0-0-------------------------------|
  "She'll wreck your world"

Chorus
e|---------------------------------------|
b|---------------------------------------|
G|-----------------------4-4-4-4-2-2-2-2-|
D|-7-7-7-5-5-5-5-5-5-5-5-4-4-4-4-2-2-2-2-|
A|-7-7-7-5-5-5-5-5-5-5-5-2-2-2-2-0-0-0-0-|
E|-7-7-7-5-5-5-5-5-5-5-5-----------------|
  "But life goes on"

e|---------------------------------------|
b|---------------------------------------|
G|-----------------4-4-4-4-2-2-2-2-------|
D|-5-5-5-5-5-5-5-5-4-4-4-4-2-2-2-2-------|
A|-5-5-5-5-5-5-5-5-2-2-2-2-0-0-0-0-------|
E|-5-5-5-5-5-5-5-5-----------------------|
  "Young love that lasts"

Interlude
e|---------------------------------------|
b|---------------------------------------|
G|---------------------------------------|
D|-0~~~~-x-x-0~~~~----//////-------------|
A|-0~~~~-x-x-0~~~~----//////-------------|
E|-0~~~~-x-x-0~~~~----//////-------------|

e|---------------------------------------|
b|---------------------------------------|
G|-7-7-7-7-7-7-7-7-7-7-7-7-7-7-7---------|
D|-x-x-x-x-x-x-x-x-x-x-x-x-x-x-x---------|
A|-5-5-5-5-5-5-5-5-5-5-5-5-5-5-5---------|
E|---------------------------------------|
  "And everything will be alright"

e|---------------------------------------|
b|---------------------------------------|
G|---------------------------------------|
D|-9-----7-----5-------------------------|
A|-9-x16-7-x16-5-x32---------------------|
E|-9-----7-----5-------------------------|
  "And everything will be just fine"

Pre-Chorus
e|---------------------------------------|
b|---------------------------------------|
G|---------------------------------------|
D|--7-7-5-5------------------------------|
A|--7-7-5-5------------------------------|
E|--7-7-5-5------------------------------|
  "You're just a boy"  

e|---------------------------------------|
b|---------------------------------------|
G|---------------------------------------|
D|-7-7-0-0-------------------------------|
A|-7-7-0-0-------------------------------|
E|-7-7-0-0-------------------------------|
  "She's just a girl"


e|---------------------------------------|
b|---------------------------------------|
G|---------------------------------------|
D|--7-7-5-5------------------------------|
A|--7-7-5-5------------------------------|-
E|--7-7-5-5------------------------------| -
  "You'll break her heart"                  -  I can't tell which one
                                            -   is actually played
e|---------------------------------------| -
b|---------------------------------------|-
G|---------------------------------------|
D|--7-7-9-5------------------------------|
A|--7-7-9-5------------------------------|
E|--7-7-9-5------------------------------|
  "You'll break her heart"  

e|---------------------------------------|
b|---------------------------------------|
G|---------------------------------------|
D|-7-7-0-0------------------x-x-x-x-x----|
A|-7-7-0-0------------------x-x-x-x-x----|
E|-7-7-0-0------------------x-x-x-x-x----|
  "She'll wreck your world"


Chorus
e|---------------------------------------|
b|---------------------------------------|
G|-----------------4-4-4-4-2-2-2-2-------|
D|-5-5-5-5-5-5-5-5-4-4-4-4-2-2-2-2-pause-|
A|-5-5-5-5-5-5-5-5-2-2-2-2-0-0-0-0-------|
E|-5-5-5-5-5-5-5-5-----------------------|
  "But life goes on"

e|---------------------------------------|
b|---------------------------------------|
G|-----------------4-4-4-4-2-2-2-2-------|
D|-5-5-5-5-5-5-5-5-4-4-4-4-2-2-2-2-------|
A|-5-5-5-5-5-5-5-5-2-2-2-2-0-0-0-0-------|
E|-5-5-5-5-5-5-5-5-----------------------|
  "Young love that lasts"

Chorus
e|---------------------------------------|
b|---------------------------------------|
G|-----------------4-4-4-4-2-2-2-2-------|
D|-2-2-2-2-5-5-5-5-4-4-4-4-2-2-2-2-------|
A|-2-2-2-2-5-5-5-5-2-2-2-2-0-0-0-0-------|
E|-2-2-2-2-5-5-5-5-----------------------|
  "life goes on"

e|---------------------------------------|
b|---------------------------------------|
G|-----------------4-4-4-4-2-2-2-2-------|
D|-2-2-2-2-5-5-5-5-4-4-4-4-2-2-2-2-------|
A|-2-2-2-2-5-5-5-5-2-2-2-2-0-0-0-0-------|
E|-2-2-2-2-5-5-5-5-----------------------|
  "Young love that lasts"

e|---------------------------------------|
B|---------------------------------------|
G|-5-5-----------------------------------|
D|-5-5-x15-------------------------------|
A|-3-3-----------------------------------|
E|---------------------------------------|
     *    
  "You will survive"
Outro
e|---------------------------------------|
b|---------------------------------------|
G|---------------------------------------|
D|--xx-7-xx-7h7-xx-5-xx-5h7--------------|
A|--xx-5-xx-5h5-xx-5-xx-5h7------5-------|
E|--xx-4-xx-4h5-xx-5-xx-5h7--0-0---------|
                             * *
e|---------------------------------------|
b|---------------------------------------|
G|---------------------------------------|
D|--xx-7-xx-7h9-xx------------4~--7-7\---|
A|--xx-7-xx-7h9-xx-------0h4h5----7-7\---|
E|--xx-7-xx-7h9-xx---0h4h5--------7-7\---|

************************************
| /   Pick Slide
| \   slide down
| h   hammer-on
| p   pull-off
| ~   vibrato
| +   harmonic
| x   Mute note
| b   Bend
| pb  Pre-bend
| br  Bend release
| pbr Pre-bend release
| brb Bend release bend

************************************    

Added On December 16th, 2013

SHARE

Comments

blog comments powered by Disqus

ADVERTISEMENT