Fountains Of Wayne Tabs

Radiation Vibe

2 versions

TAB

            Radiation Vibe Chords by Fountains Of Wayne

  O-------------------------O
  |    Fountians of Wayne   |
  |     Radition  Vibe      |
  |   Tabbed by Deadmeat    |
  O-------------------------O

Great song, makes me wanna get some sun ^_^ Like most Fountain songs,
it's pretty easy but fun to play. Enjoy! It was tabbed out by my guitar teacher,
so I'm pretty sure it's correct. It sounds great, at least.


   Riff 1                       Riff 2
e||----------------------||   ||----------------------||
B||----------------------||   ||----------------------||
G||----------------------||   ||--2--4--2--66666--2---||
D||--2--4--2--66666--2---||   ||--0--0--0--00000--0---||
A||--0--0--0--00000--0---||   ||----------------------||
E||----------------------||   ||----------------------||

   Chords
e||---0----3----0----0----||
B||---0----2----2----2----||
G||---1----3----2----2----||
D||---2----0----2----2----||
A||---2---------0----0----||
E||---0--------------2----||
      E
E
e |---|---|---|---|---|
B |---|---|---|---|---|
G |-x-|---|---|---|---|
D |---|-x-|---|---|---|
A |---|-x-|---|---|---|
E |---|---|---|---|---|
D
D
e |---|-x-|---|---|---|
B |---|---|-x-|---|---|
G |---|-x-|---|---|---|
D |---|---|---|---|---|
A |---|---|---|---|---|
E |---|---|---|---|---|
A
A
e |---|---|---|---|---|
B |---|-x-|---|---|---|
G |---|-x-|---|---|---|
D |---|-x-|---|---|---|
A |---|---|---|---|---|
E |---|---|---|---|---|
A/F#
A/F#
e |---|---|---|---|---|
B |---|-x-|---|---|---|
G |---|-x-|---|---|---|
D |---|-x-|---|---|---|
A |---|---|---|---|---|
E |---|-x-|---|---|---|
>>> Intro > Verse 1 > Chorus > Verse 2 > Chorus > Bridge > Chorus

Added On December 4th, 2013

SHARE

Comments

blog comments powered by Disqus

VERSIONS

ADVERTISEMENT