TAB

            Kung Fu You Tab by Frankenstein Drag Queens From The Planet 13


Tabbed by: Ding
Email: devilishsude22@hotmail.com

Tuning: Standard

Ive just finished the bass version to this song. For anyone who wants to the know the 
octave chords to this song ill put em up soon, but for know enjoy gtr 1 of this song.

Intro

e|----------------------------| play twice
B|----------------------------|
G|----------------------------|
D|--7-7-6-4-------------------|
A|--5-5-4-2-5-5-5-5-7-7-7-7---|
E|----------3-3-3-3-5-5-5-5---|

Verse

e|----------------------------| listen to cd for timing
B|----------------------------|
G|----------------------------|
D|----------------7-----------|
A|--5-5-5-5-7-7-7-5-----------|
E|--3-3-3-3-5-5-5-------------|

Pre chourus ( And theres nothing ... )

e|-------------------------------------------------------------|
B|-------------------------------------------------------------|
G|-------------------------------------------------------------|
D|------------------7-7-7-6-4-4-4-4----------------------------|
A|--5-5-5-5-7-7-7-7-5-5-5-4-2-2-2-2-5-5-5-5-7-7-7-7------------|
E|--3-3-3-3-5-5-5-5-----------------3-3-3-3-5-5-5-5------------|

Chourus ( kung fu you )

e|------------| play 8 times
B|------------|
G|------------|
D|---7-7-6-4--|
A|---5-5-4-2--|
E|------------|

solo thing

e|-------------------------------------------------------------|
B|-------------------------------------------------------------|
G|-------------------------------------------------------------|
D|-12-12-14-16-17-16-14-12-------12-12-14-16-17-16-14-12-------|
A|-------------------------15-17-------------------------------|
E|-------------------------------------------------------15-17-|

Your all clever you should be able to work out the order of the song.!!!
cya get jammin    

Added On December 4th, 2013

SHARE

Comments

blog comments powered by Disqus

ADVERTISEMENT