Franz Ferdinand Tabs

Cant Stop Feeling Single

1 versions

TAB

            This tab is for the Lead guitar only (Chords)

e|-1///---5-5-5-55----10-10-10-1010-8-8-8-88---7-7-7-77---------|
B|-1///---5-5-5-55----10-10-10-1010-9-9-9-99---8/9-9-99---------|
G|-1///---5-5-5-55////10-10-10-1010-1010101010-7-7-7-77---------|
D|--------------------------------------------------------------|
A|--------------------------------------------------------------|
E|--------------------------------------------------------------|
Intro/Verse


Chorus:
e|-1///---5-5-5-55----10-10-10-1010-8-8-8-88---4447-----------------|
B|-1///---5-5-5-55----10-10-10-1010-9-9-9-99---5555-----------------|
G|-1///---5-5-5-55////10-10-10-1010-1010101010-4444-----------------|
D|------------------------------------------------------------------|
A|------------------------------------------------------------------|
E|------------------------------------------------------------------|

e|-1///---5-5-5-55----10-10-10-1010-8-8-8-88---7-7-7-77---------|
B|-1///---5-5-5-55----10-10-10-1010-9-9-9-99---8/9-9-99---1~----|
G|-1///---5-5-5-55////10-10-10-1010-1010101010-7-7-7-77---2~----|
D|--------------------------------------------------------2~----|
A|-0-0-0-0-0-0-0-0---0-0-0--0-0-0-------------------------0~----|
E|--------------------------------------------------------------|    

Added On December 16th, 2013

SHARE

Comments

blog comments powered by Disqus

ADVERTISEMENT