Franz Ferdinand Tabs

Come On Home

4 versions

TAB

            Come On Home Tab by Franz Ferdinand


-------------------------------------------------------------------------------
			     come on home - franz ferdinand
-------------------------------------------------------------------------------
Tabbed by:chis
Email:christopher_mcgibbon@msn.com

Tuning: normal

e|-------------------------------------------------------------------------|
B|-------------------------------------------------------------------------|
G|-------------------------------------------------------------------------|
D|--------------------------------------------------------666666666--------|
A|----------------------------77/888888888888/777777777777-----------7-----|
E|-1/55555555555555555555555------------------------------------------8-7-5|
                             ^ repeat ^  x2
e|-------------------------------------------------------------------------|
B|-------------------------------------------------------------------------|
G|-------------------------------------------------------------------------|
D|---7-7-10-10-10-9-9------------------------------------------------------|
A|-------------------------------------------------------------------------|
E|-------------------------------------------------------------------------|
                             ^ repeat ^  x3
e|-------------------------------------------------------------------------|
B|-------------------------------------------------------------------------|
G|-------------------------------------------------------------------------|
D|-------------------------------------------------------------------------|
A|---8--10--10--8--8--8--8---8---10----------------------------------------|
E|-------------------------8-----------------------------------------------|
                            ^repeat^ x2
e|-------------------------------------------------------------------------|
B|-------------------------------------------------------------------------|
G|-------------------------------------------------------------------------|
D|-------------------------------------------------------------------------|
A|-------------------------------------------------------------------------|
E|---5----------1----------5---------1--------3----------------------------|

e|-------------------------------------------------------------------------|
B|-------------------------------------------------------------------------|
G|-------------------------------------------------------------------------|
D|--------------------------------------------------------666666666--------|
A|----------------------------77/888888888888/777777777777-----------7-----|
E|-1/55555555555555555555555------------------------------------------8-7-5|
                             ^ repeat ^  x2

e|-------------------------------------------------------------------------|
B|-------------------------------------------------------------------------|
G|-------------------------------------------------------------------------|
D|---7-7-10-10-10-9-9------------------------------------------------------|
A|-------------------------------------------------------------------------|
E|-------------------------------------------------------------------------|
                             ^ repeat ^  x3

e|-------------------------------------------------------------------------|
B|-------------------------------------------------------------------------|
G|-------------------------------------------------------------------------|
D|-------------------------------------------------------------------------|
A|---8--10--10--8--8--8--8---8---10----------------------------------------|
E|-------------------------8-----------------------------------------------|
                            ^repeat^ x2

e|-------------------------------------------------------------------------|
B|-------------------------------------------------------------------------|
G|-------------------------------------------------------------------------|
D|-------------------------------------------------------------------------|
A|-------------------------------------------------------------------------|
E|---5----------1----------5---------1--------3----------------------------|

e|-------------------------------------------------------------------------|
B|-------------------------------------------------------------------------|
G|-------------------------------------------------------------------------|
D|--------------------------------------------------------666666666--------|
A|----------------------------77/888888888888/777777777777-----------7-----|
E|-1/55555555555555555555555------------------------------------------8-7-5|
                             ^ repeat ^  x4
e|-------------------------------------------------------------------------|
B|-------------------------------------------------------------------------|
G|-------------------------------------------------------------------------|
D|---7-7-10-10-10-9-9------------------------------------------------------|
A|-------------------------------------------------------------------------|
E|-------------------------------------------------------------------------|
                             ^ repeat ^  x3
e|-------------------------------------------------------------------------|
B|-------------------------------------------------------------------------|
G|-------------------------------------------------------------------------|
D|-------------------------------------------------------------------------|
A|---8--10--10--8--8--8--8---8---10----------------------------------------|
E|-------------------------8-----------------------------------------------|
                            ^repeat^ x2

e|-------------------------------------------------------------------------|
B|-------------------------------------------------------------------------|
G|-------------------------------------------------------------------------|
D|-------------------------------------------------------------------------|
A|------------3------------------------------------------------------------|
E|---5---0---------0----5----0---5----0---5--------------------------------|


| /  slide up
| \  slide down
| h  hammer-on
| p  pull-off
| ~  vibrato
| +  harmonic
| x  Mute note
============================================================================    

Added On December 4th, 2013

SHARE

Comments

blog comments powered by Disqus

VERSIONS

ADVERTISEMENT