Franz Ferdinand Tabs

Take Me Out

12 versions

TAB

            Take Me Out Tab by Franz Ferdinand


Band: Franz Ferdinand
Song: Take Me Out

First minute or so missed out, starts when the riff comes in.


Bridge riff (Bit just before the chorus or main riff:)
|--7-7-7-7-7-7-7-7--7---7---7-----x7---x--7------|
|--9-9-9-9-9-9-9-9--9---9---9-----x9---x--9------|
|--9-9-9-9-9-9-9-9--9---9---9-----x9---x--9------|
|--9-9-9-9-9-9-9-9--9---9---9-----x9---x--9------|
|--7-7-7-7-7-7-7-7--7---7---7-----x7---x--7------|
|--0-0-0-0-0-0-0-0--0---0---0-----x0---x--0------|
Then the riff kicks in.


Main Riff:-
|-------------------|
|-8-----------------|
|---9-9-9p7-7-9-----|
|-------9-----------|X3
|-------------------|
|-------------------|

the third time do it like this:
|------------------------------|
|-7~7~7~7~7~-------------------|
|-----------7------------------|
|------------------------------|
|------------------------------|
|------------------------------|

Chrous: (with riff playing)

"I said dont you know, You said you dont know, I said Take me out.
I say you dont show, Dont move ____ ___, I say take me out."


Riff----


then - "I said dont you know, You said you dont know, I said Take me out."


Then do the Bridge Riff, which leads to
"I know I wont be leaving here (With You), I know I wont be leaving here (With You), 
I know I wont be leaving here (With You), I know I wont be leaving here (With You),"


Main Riff

Chorus

Main Riff

Bridge


http://www.franzferdinand.co.uk/    

Added On December 4th, 2013

SHARE

Comments

blog comments powered by Disqus