Frightened Rabbit Tabs

Poke

2 versions

TAB

            Band : Frightened Rabbit
Song : Poke
Album: The Midnight Organ Fight
Tabbed By: Calum (afirock74@hotmail.com)


x   - Palm Mute
b   - Bend
b~  - Bend Up Then Down
h   - Hammer-On Directly After Note Before
~   - Ring Out


Intro:
e|-------|
B|-------|
G|--9----|
D|---6---|
A|-7-----|
E|-------|

Verse:
e|------------------------------------------------------------------------|
B|-------------------7---7---7---7----10---10----9----9----7---7--7---7---|
G|--9---9---9---9-----9---9---9---9-----9----9----9----9----9---9--9---9--|
D|---6---6---6---6-------------------7----7-----6----6--------------------|
A|-7---7---7---7----9---9---9---9-------------------------9---9---9--9----|
E|------------------------------------------------------------------------|

Chorus: Harmony Bit
e|------------------------------------------------------------|
B|---10---10---10--------10----10----9---9----9---9---9---9---|
G|-----9----9----9--9-9----9-----9----9---9----9---9---9---9--|
D|--7----7----7----7----------------6---6---------------------|
A|-------------------7--9-----9-------------------------------|
E|-------------------------------------------9---9---9---9----|

Outro:
e|---------------------|-----|
B|---------------------|-----|
G|---------------------|-9~--|
D|---6----6----6----4--|-6~--|
A|--7----7----7----7---|-7~--|
E|-0----0----0----0----|-0~--|


www.frightenedrabbit.com/

www.myspace.com/frightenedrabbit    

Added On December 16th, 2013

SHARE

Comments

blog comments powered by Disqus

VERSIONS

ADVERTISEMENT