From First To Last Tabs

Waltz Moore

4 versions

TAB

            Waltz Moore Tab by From First To Last


-----------------------------------------------------------------------------
                       FROM FIRST TO LAST- WALTZ MOORE
-----------------------------------------------------------------------------
TABBED BY: Ashley Webster
E-MAIL: Lloydweb@Blueyonder.co.uk

In Drop C Tuning: CGCFAD

3/4 Time

   Intro:

D|--------------------------------------------------------------------------|
A|--15-----------------------------------------------------------15---------|
F|-----15---------------------------10---9--10--12--10--9-----------15------|
C|--------12---14BU(15)BD(14)---11--12--12--12--12--12--12------------ 12---|
G|--------------------------------------------------------------------------|
C|--------------------------------------------------------------------------|


D|--------------------------------------------------------------------------|
A|--------------------------------------------------------------------------|
F|---------------------10--9---10--12----7~~~-------------------------------|
C|--14BU(15)BD14---11--12--12--12--12----X----------------------------------|
G|---------------------------------------5~~~-------------------------------|
C|---------------------------------------0~~~-------------------------------|

     Verse 1:                  
                                
D|--------------------------------------------------------------------------|
A|--------------------------------------------------------------------------|
F|----7-7-7-7-7-7/3-3-3-3-3-3-----------------------------------------------|
C|----X-X-X-X-X-X-X-X-X-X-X-X--6 Times then-0-0---0-0--0-0--0-0---0-0--0-0-0|
G|----5-5-5-5-5-5/1-1-1-1-1-1---------------0-0---0-0--0-0--0-0---0-0--0-0-0|
C|------------------------------------------0-0---0-0--0-0--0-0---0-0--0-0-0|
                                            . .   . .  . .  . .   . .  . . 
                                                       Let last chord ring...

After four bars of verse 1 another guitar plays intro again.

D|-------------------------------------------|------------------------------|
A|-------------------------------------------|------------------------------|
F|--7--7-7-10-7----------------6-6-9-7-6-----|--Play that phrase twice------|
C|--X--X-X-X--X-- 3 times then-X-X-X-X-X-----|------------------------------|
G|--5--5-5/8--5----------------4-4/7-5/4-----|------------------------------|
C|--0~~~~~~~~~-------------------------------|------------------------------|

D|---------------------------|---0------------------------------------------|
A|---------------------------|---6------------------------------------------|
F|---7----10-----------------|---7------------------------------------------|
C|---X----8-----Play twice---|---0------------------------------------------|
G|---5----8------------------|----------------------------------------------|
C|---0----8------------------|----------------------------------------------|

Strum these two chords    Pick out notes from this chord, then strum the    two other chords again.    

Added On December 4th, 2013

SHARE

Comments

blog comments powered by Disqus

VERSIONS

ADVERTISEMENT