Funeral For A Friend Tabs

Wrench

1 versions

TAB

            Artist: Funeral for a Friend
Song: Wrench
Album: Your Histroy is Mine 2002-2009
Tuning: Drop C#/ Db Ab Db Gb Bb Eb

Great Song

Ok im only a beginner and since no one's tabbed this great song yet i though id make it 
to the best of my ability by learning it by ear.

Iv'e only managed the one guitar which i belive is Kris' part and not darrans im afraid. 
someone with a more atute hearing could tab out the rest.

Intro:

eb--------------------------------------------------------------------------|
Bb--------------------------------------------------------------------------|
Gb------8-8-9-8-8-9-8-8-9---------------------------------------------------|
Db--7777777777777777777777--101010101010--11111111--12121212121212--12-12---|
Ab--7777777777777777777777--101010101010--11111111--12121212121212--12-12---|
Db--7777777777777777777777--101010101010--11111111--12121212121212--12-12---|

Do these twice (i think)
Those are 10'11's and 12's
Timing not indicated

Verse:

(We look past the obvious We blind ourselves to the truth)

eb-------------------------------------------------------------------|
Bb-------------------------------------------------------------------|
Gb------8-8-9-8-8-9-8-8-9--------------------------------------------|
Db--7777777777777777777777--101010101010--11111111--12121212121212---|
Ab--7777777777777777777777--101010101010--11111111--12121212121212---|
Db--7777777777777777777777--101010101010--11111111--12121212121212---|

(No escape, resistance is futile The old roads lead back home)

eb-----------------------------------------------------|
Bb-----------------------------------------------------|
Gb------8-8-9-8-8-9-8-8-9------------------------------|
Db--7777777777777777777777--101010101010--888888888888-|
Ab--7777777777777777777777--101010101010--888888888888-|
Db--7777777777777777777777--101010101010--888888888888-|

(A place where I belong I lay my head where I lay my hat)

eb-----------------------------------------------------------------|
Bb-----------------------------------------------------------------|
Gb------8-8-9-8-8-9-8-8-9------------------------------------------|
Db--7777777777777777777777--101010101010--11111111--12121212121212-|
Ab--7777777777777777777777--101010101010--11111111--12121212121212-|
Db--7777777777777777777777--101010101010--11111111--12121212121212-|

(Affection, redemption A clenched fist screaming)

eb--------------------------------------------------------------------------|
Bb--------------------------------------------------------------------------|
Gb------8-8-9-8-8-9-8-8-9---------------------------------------------------|
Db--7777777777777777777777--101010101010--11111111--12121212121212--12-12---|
Ab--7777777777777777777777--101010101010--11111111--12121212121212--12-12---|
Db--7777777777777777777777--101010101010--11111111--12121212121212--12-12---|

Chorus:

There's pain and then there's living Both make sense to those who're willing

eb---------------------------------------------------------------------------|
Bb---------------------------------------------------------------------------|
Gb---------------------------------------------------------------------------|
Db--333333333333333333333333333333--5555555555555555555555555555555555555555-|
Ab--333333333333333333333333333333--5555555555555555555555555555555555555555-|
Db--333333333333333333333333333333--5555555555555555555555555555555555555555-|

(And there's nothing left to say We carry on, we carry)

eb---------------------------------------------------------------------------|
Bb---------------------------------------------------------------------------|
Gb---------------------------------------------------------------------------|
Db--333333333333333333333333333333--5555555555555555555555555555555555555555-|
Ab--333333333333333333333333333333--5555555555555555555555555555555555555555-|
Db--333333333333333333333333333333--5555555555555555555555555555555555555555-|

Verse 2:

(Sacrifice, every day To make amends for the debt we pay)

eb-------------------------------------------------------------------|
Bb-------------------------------------------------------------------|
Gb------8-8-9-8-8-9-8-8-9--------------------------------------------|
Db--7777777777777777777777--101010101010--11111111--12121212121212---|
Ab--7777777777777777777777--101010101010--11111111--12121212121212---|
Db--7777777777777777777777--101010101010--11111111--12121212121212---|

(This way An instrument of constant struggle There's nothing left to regret)

eb-----------------------------------------------------|
Bb-----------------------------------------------------|
Gb------8-8-9-8-8-9-8-8-9------------------------------|
Db--7777777777777777777777--101010101010--888888888888-|
Ab--7777777777777777777777--101010101010--888888888888-|
Db--7777777777777777777777--101010101010--888888888888-|

(A promise is a promise kept Whether history will forget )

eb-----------------------------------------------------------------|
Bb-----------------------------------------------------------------|
Gb------8-8-9-8-8-9-8-8-9------------------------------------------|
Db--7777777777777777777777--101010101010--11111111--12121212121212-|
Ab--7777777777777777777777--101010101010--11111111--12121212121212-|
Db--7777777777777777777777--101010101010--11111111--12121212121212-|

(To open up with friendly arms This wrench screaming)

eb--------------------------------------------------------------------------|
Bb--------------------------------------------------------------------------|
Gb------8-8-9-8-8-9-8-8-9---------------------------------------------------|
Db--7777777777777777777777--101010101010--11111111--12121212121212--12-12---|
Ab--7777777777777777777777--101010101010--11111111--12121212121212--12-12---|
Db--7777777777777777777777--101010101010--11111111--12121212121212--12-12---|

Chorus 2:

There's pain and then there's living Both make sense to those who're willing

eb---------------------------------------------------------------------------|
Bb---------------------------------------------------------------------------|
Gb---------------------------------------------------------------------------|
Db--333333333333333333333333333333--5555555555555555555555555555555555555555-|
Ab--333333333333333333333333333333--5555555555555555555555555555555555555555-|
Db--333333333333333333333333333333--5555555555555555555555555555555555555555-|

(And there's nothing left to say We carry on, we carry)

eb---------------------------------------------------------------------------|
Bb---------------------------------------------------------------------------|
Gb---------------------------------------------------------------------------|
Db--333333333333333333333333333333--5555555555555555555555555555555555555555-|
Ab--333333333333333333333333333333--5555555555555555555555555555555555555555-|
Db--333333333333333333333333333333--5555555555555555555555555555555555555555-|

There's pain and then there's living Both make sense to those who're willing

eb----------------------------------------------------------------------|
Bb----------------------------------------------------------------------|
Gb----------------------------------------------------------------------|
Db--3333-3333-33333-33333-33333-3333333--55555-5555-5555-555555--777777-|
Ab--3333-3333-33333-33333-33333-3333333--55555-5555-5555-555555--777777-|
Db--3333-3333-33333-33333-33333-3333333--55555-5555-5555-555555--777777-|

(And there's nothing left to say We carry on, we carry)

eb----------------------------------------------------------------------|
Bb----------------------------------------------------------------------|
Gb----------------------------------------------------------------------|
Db--3333-3333-33333-33333-33333-3333333--55555-5555-5555-555555--777777-|
Ab--3333-3333-33333-33333-33333-3333333--55555-5555-5555-555555--777777-|
Db--3333-3333-33333-33333-33333-3333333--55555-5555-5555-555555--777777-|

Bridge:

We struggle every single day

eb--------------------------|
Bb--------------------------|
Gb--------------------------|
Db--777777777777777777777777
Ab--777777777777777777777777
Db--777777777777777777777777

Never giving up or giving in

eb--------------------------|
Bb--------------------------|
Gb--------------------------|
Db--101010101010101010101010
Ab--101010101010101010101010
Db--101010101010101010101010

No single sense of self-respect

eb--------------------------|
Bb--------------------------|
Gb--------------------------|
Db--333333333333333333333333
Ab--333333333333333333333333
Db--333333333333333333333333

We turn around and walk away

eb--------------------------|
Bb--------------------------|
Gb--------------------------|
Db--555555555555555555555555
Ab--555555555555555555555555
Db--555555555555555555555555

No sense of community

eb--------------------------|
Bb--------------------------|
Gb--------------------------|
Db--777777777777777777777777
Ab--777777777777777777777777
Db--777777777777777777777777

We fear each and everyday

eb--------------------------|
Bb--------------------------|
Gb--------------------------|
Db--101010101010101010101010
Ab--101010101010101010101010
Db--101010101010101010101010

Behind closed doors and closed minds

eb--------------------------|
Bb--------------------------|
Gb--------------------------|
Db--333333333333333333333333
Ab--333333333333333333333333
Db--333333333333333333333333

We shelter away from our lives

eb--------------------------|
Bb--------------------------|
Gb--------------------------|
Db--555555555555555555555555
Ab--555555555555555555555555
Db--555555555555555555555555

Interlude:

eb--------------------------------------------------------------------------|
Bb--------------------------------------------------------------------------|
Gb------8-8-9-8-8-9-8-8-9---------------------------------------------------|
Db--7777777777777777777777--101010101010--11111111--12121212121212--12-12---|
Ab--7777777777777777777777--101010101010--11111111--12121212121212--12-12---|
Db--7777777777777777777777--101010101010--11111111--12121212121212--12-12---|

Final Chorus:

There's pain and then there's living Both make sense to those who're willing

eb---------------------------------------------------------------------------|
Bb---------------------------------------------------------------------------|
Gb---------------------------------------------------------------------------|
Db--333333333333333333333333333333--5555555555555555555555555555555555555555-|
Ab--333333333333333333333333333333--5555555555555555555555555555555555555555-|
Db--333333333333333333333333333333--5555555555555555555555555555555555555555-|

(And there's nothing left to say We carry on, we carry)

eb---------------------------------------------------------------------------|
Bb---------------------------------------------------------------------------|
Gb---------------------------------------------------------------------------|
Db--333333333333333333333333333333--5555555555555555555555555555555555555555-|
Ab--333333333333333333333333333333--5555555555555555555555555555555555555555-|
Db--333333333333333333333333333333--5555555555555555555555555555555555555555-|

(We carry on, we carry on We carry, we carry on)

eb--------------------------------------------------------------------------|
Bb--------------------------------------------------------------------------|
Gb------8-8-9-8-8-9-8-8-9---------------------------------------------------|
Db--7777777777777777777777--101010101010--11111111--12121212121212--12-12---|
Ab--7777777777777777777777--101010101010--11111111--12121212121212--12-12---|
Db--7777777777777777777777--101010101010--11111111--12121212121212--12-12---|

Hope thats helps you and hopefully someone better could fix any mistakes and tba 
out the second guitar    

Added On December 16th, 2013

SHARE

Comments

blog comments powered by Disqus

ADVERTISEMENT