Gallows Tabs

Six Years

1 versions

TAB

            Song: Six Years
Artist: Gallows
Album: Orchestra of Wolves

Tabbed by: garyhann
Email: garyhann@live.co.uk

Tuning: Drop D


I’m pretty sure most of this is right. The only part I’m unsure about is a little bit of 
the Interlude so if anyone has any corrections about that or any other part of the song 
I’d like to hear them =P
Cheers.

Intro – Guitar 1
e|---------------------0~------|
B|--0-0-0~-----0-0-0---3~------|
G|--2-2-2~-----2-2-2---2~------|
D|--2-2-2~-----2-2-2---0~------|
A|--0-3-0~-----0-3-0-----------|
D|-----------------------------|

Intro – Guitar 1
e|-----------------------------|
B|-----------------------------|
G|-----------------------------|
D|--2-5-2~----2-5-2---7~-------|
A|--0-3-0~----0-3-0---5~-------|
D|-----------------------------|


Intro 2 - Guitar 1
e|-------------------------000-000--|
B|--0-0-0------------------333-333--|
G|--2-2-2----------[x3]----222-222--|
D|--2-2-2-2p0---0----------000-000--|
A|--0-3-0-----3---------------------|
D|----------------------------------|

Intro 2 - Guitar 2
e|-----------------------------|
B|-----------------------------|
G|--2-5-2~------[x3]-----------|
D|--2-5-2~------------333-000--|
A|--0-3-0~------------333-000--|
D|--------------------333-000--|


Verse – Guitar 1
e|-------------------------------------------------------------------------|
B|--00-000-0-00-000--------------------------------------------------------|
G|--22-222-2-22-222--------------------22-222--------------------7-77-777--|
D|--22-222-2-22-222-5-6-5h6p5-0-00-000-22-222-3-33-333-5-6-5h6p5-7-77-777--|
A|--00-000-0-00-000-5-6-5h6p5-0-00-000-00-000-3-33-333-5-6-5h6p5-5-55-555--|
D|------------------5-6-5h6p5-0-00-000--------3-33-333-5-6-5h6p5-----------|

Verse – Guitar 2
e|-------------------------------------------------------------------------|
B|-------------------------------------------------------------------------|
G|--22-222-----------------------------22-222--------------------7-77-777--|
D|--22-222-3-33-333-5-6-5h6p5-0-00-000-22-222-3-33-333-5-6-5h6p5-7-77-777--|
A|--00-000-3-33-333-5-6-5h6p5-0-00-000-00-000-3-33-333-5-6-5h6p5-5-55-555--|
D|---------3-33-333-5-6-5h6p5-0-00-000--------3-33-333-5-6-5h6p5-----------|

                                   OR

Verse tabbed for playing on 1 Guitar
e|-------------------------------------------------------------------------|
B|--00-000-0-00-000--------------------00-000-0-00-000---------------------|
G|--22-222-2-22-222--------------------22-222-2-22-222-----------7-77-777--|
D|--22-222-2-22-222-5-6-5h6p5-0-00-000-22-222-2-22-222-5-6-5h6p5-7-77-777--|
A|--00-000-3-33-333-5-6-5h6p5-0-00-000-00-000-3-33-333-5-6-5h6p5-5-55-555--|
D|---------3-33-333-5-6-5h6p5-0-00-000--------3-33-333-5-6-5h6p5-----------|


Build Up – Guitar 1
e|--------------------------------------------------------------------|
B|--00-000-1-11-111-00-000-1-11-111-00-000-1-11-111-00-000-1-11-1111--|
G|--22-222-2-22-222-22-222-2-22-222-22-222-2-22-222-22-222-2-22-2222--|
D|--------------------------------------------------------------------|
A|--------------------------------------------------------------------|
D|--------------------------------------------------------------------|

Build Up – Guitar 2
e|---------------------------------------------------------------------|
B|---------------------------------------------------------------------|
G|--22-222---------------------------22-222------------------7-77-777--|
D|--22-222-2-22-222-3-3-333-0-00-000-22-222-2-22-222-3-3-333-7-77-777--|
A|--00-000-2-22-222-3-3-333-0-00-000-00-000-2-22-222-3-3-333-5-55-555--|
D|---------2-22-222-3-3-333-0-00-000--------2-22-222-3-3-333-----------|


Build Up 2 – Guitar 1
e|-----xxx-00-xxx----xxx-00-xxx----xxx-00-xxx----xxx-0-000--|
B|--00-xxx-11-xxx-00-xxx-11-xxx-00-xxx-11-xxx-00-xxx-1-111--|
G|--22-xxx-22-xxx-22-xxx-22-xxx-22-xxx-22-xxx-22-xxx-2-222--|
D|--22-xxx-00-xxx-22-xxx-00-xxx-22-xxx-00-xxx-22-xxx-0-000--|
A|--00-xxx----xxx-00-xxx----xxx-00-xxx----xxx-00-xxx--------|
D|----------------------------------------------------------|

Build Up 2 – Guitar 2
e|-----xxx----xxx----xxx----xxx----xxx----xxx----xxx--------|
B|-----xxx----xxx----xxx----xxx----xxx----xxx----xxx--------|
G|--22-xxx----xxx----xxx----xxx-22-xxx----xxx----xxx--------|
D|--22-xxx-22-xxx-33-xxx-00-xxx-22-xxx-22-xxx-33-xxx-0-000--|
A|--00-xxx-22-xxx-33-xxx-00-xxx-00-xxx-22-xxx-33-xxx-0-000--|
D|---------22-----33-----00------------22-----33-----0-000--|


Interlude - Guitar 1
e|-----------------------------------0-----------------|
B|-------------------------------------1---3---1~------|
G|-----2----4----5---------------2-------2---2---------|
D|--------------------5----2---3---3-------------------|
A|--00---00---00---00---00---0-------------------------|
D|-----------------------------------------------------|

Interlude - Guitar 2
e|-----------------------------------------------------|
B|-----------------------------------------------------|
G|-----------------------------------------------------|
D|-----------------------------------------------------|
A|--0~-------------------------------------------------|
D|-----------------------------------------------------|


Outro – Guitar 1
e|-----------------------------------0-----------------|
B|-------------------------------------1---3---1~------|
G|-----2----4----5---------------2-------2---2---------|
D|--------------------5----2---3---3-------------------|
A|--00---00---00---00---00---0-------------------------|
D|-----------------------------------------------------|


Outro – Guitar 2
e|-----------------------------------------------------|
B|-----------------------------------------------------|
G|--2222222222222222-----------------------------------|
D|--2222222222222222-3333333-0~------------------------|
A|--0000000000000000-3333333-0~------------------------|
D|-------------------3333333-0~------------------------|


End – Guitar 1
e|----------0-----0~------|
B|------------1---1~------|
G|------2-------2-2~------|
D|----3---3-------0~------|
A|--0-------------0~------|
D|------------------------|

End – Guitar 2
e|------------------------|
B|--0~--------------------|
G|--2~--------------------|
D|--2~------------0~------|
A|--0~------------0~------|
D|----------------0~------|    

Added On December 16th, 2013

SHARE

Comments

blog comments powered by Disqus

ADVERTISEMENT