Gamma Ray Tabs

To Mother Earth

1 versions

TAB

            Gamma Ray- To Mother Earth (Land of the freeII)
intro
                                       x3
e--------------------------------------||
B--------------------------------------||
G 11-10-8------------------------------||
D---------11-9-8---------------8-9-10-:||
A----------------11-9-8--8-9-10--------||
E----------------------11--------------||

e------------------------------------------|
B------------------------------------------|
G----------------------9---------11-9------|
D 11-10-8---11-10-8------11-10-8------11-10|
A---------11--------11---------------------|
E------------------------------------------|

e----------------------------------------|
B-------------------------------9--------|
G 11-10-11-8-11-10-11-8-11-10-11-11-10---|
D-------------------------------------11-|
A----------------------------------------|
E----------------------------------------|    

Added On December 16th, 2013

SHARE

Comments

blog comments powered by Disqus

ADVERTISEMENT