Garbage Tabs

Queer

2 versions

TAB

            Queer Chords by Garbage

Band: Garbage
Song Title: Queer
Tuning: Normal


Intro Riff:

Guitar 1
|----------------|
|----------------|
|-0-3-5--5b6r5-3-|
|----------------|
|----------------|
|----------------|

Guitar 2
|-20----------------------|
|-------20----------------|
|-------------19----------|
|-------------------20----|
|-------------------------|
|-------------------------|


VERSE 1 & 2

Main Guitar Riff
Play this part for the first verse listen to the song for the cues.

|----------------|
|----------------|
|-0-3-5--5b6r5-3-|
|----------------|
|----------------|
|----------------|

Hey boy, take a look at me 
Let me dirty up your mind 
I'll strip away your hard veneer 
And see what I can find 

Chorus:
  G
G
e |---|---|-x-|---|---|
B |---|---|---|---|---|
G |---|---|---|---|---|
D |---|---|---|---|---|
A |---|-x-|---|---|---|
E |---|---|-x-|---|---|
Eb
Eb
e |-x-|---|---|---|---|
B |---|-x-|---|---|---|
G |-x-|---|---|---|---|
D |---|---|-x-|---|---|
A |---|---|---|-x-|---|
E |---|---|---|---|---|
C
C
e |---|---|-x-|---|---|
B |-x-|---|---|---|---|
G |---|---|---|---|---|
D |---|-x-|---|---|---|
A |---|---|-x-|---|---|
E |---|---|---|---|---|
F
F
e |-x-|---|---|---|---|
B |-x-|---|---|---|---|
G |---|-x-|---|---|---|
D |---|---|-x-|---|---|
A |---|---|-x-|---|---|
E |-x-|---|---|---|---|
Eb
Eb
e |-x-|---|---|---|---|
B |---|-x-|---|---|---|
G |-x-|---|---|---|---|
D |---|---|-x-|---|---|
A |---|---|---|-x-|---|
E |---|---|---|---|---|
C
C
e |---|---|-x-|---|---|
B |-x-|---|---|---|---|
G |---|---|---|---|---|
D |---|-x-|---|---|---|
A |---|---|-x-|---|---|
E |---|---|---|---|---|
Eb
Eb
e |-x-|---|---|---|---|
B |---|-x-|---|---|---|
G |-x-|---|---|---|---|
D |---|---|-x-|---|---|
A |---|---|---|-x-|---|
E |---|---|---|---|---|
|------------------------------------| |------------------------------------| |------8----5---------8----5----8----| |-5----8----5----3----8----5----8----| |-5----6----3----3----6----3----6----| |-3--------------1-------------------| G
G
e |---|---|-x-|---|---|
B |---|---|---|---|---|
G |---|---|---|---|---|
D |---|---|---|---|---|
A |---|-x-|---|---|---|
E |---|---|-x-|---|---|
(queer) The queerest of the queer Eb
Eb
e |-x-|---|---|---|---|
B |---|-x-|---|---|---|
G |-x-|---|---|---|---|
D |---|---|-x-|---|---|
A |---|---|---|-x-|---|
E |---|---|---|---|---|
(strangest) The strangest of the strange C
C
e |---|---|-x-|---|---|
B |-x-|---|---|---|---|
G |---|---|---|---|---|
D |---|-x-|---|---|---|
A |---|---|-x-|---|---|
E |---|---|---|---|---|
(cool) The coldest of the cool F
F
e |-x-|---|---|---|---|
B |-x-|---|---|---|---|
G |---|-x-|---|---|---|
D |---|---|-x-|---|---|
A |---|---|-x-|---|---|
E |-x-|---|---|---|---|
(lame) The lamest of the lame Eb
Eb
e |-x-|---|---|---|---|
B |---|-x-|---|---|---|
G |-x-|---|---|---|---|
D |---|---|-x-|---|---|
A |---|---|---|-x-|---|
E |---|---|---|---|---|
(dumb) The numbest of the dumb C
C
e |---|---|-x-|---|---|
B |-x-|---|---|---|---|
G |---|---|---|---|---|
D |---|-x-|---|---|---|
A |---|---|-x-|---|---|
E |---|---|---|---|---|
(here) I hate to see you here Eb
Eb
e |-x-|---|---|---|---|
B |---|-x-|---|---|---|
G |-x-|---|---|---|---|
D |---|---|-x-|---|---|
A |---|---|---|-x-|---|
E |---|---|---|---|---|
(smile) You choke behind a smile (No Chord for rest of chorus) A fake behind the fear The queerest of the queer Verse 2: Main Guitar Riff Play this part for the first verse listen to the song for the cues. |----------------| |----------------| |-0-3-5--5b6r5-3-| |----------------| |----------------| |----------------| This is what he pays me for I'll show you how it's done You learn to love the pain you feel Like father like son Chorus 2: G
G
e |---|---|-x-|---|---|
B |---|---|---|---|---|
G |---|---|---|---|---|
D |---|---|---|---|---|
A |---|-x-|---|---|---|
E |---|---|-x-|---|---|
(queer) The queerest of the queer Eb
Eb
e |-x-|---|---|---|---|
B |---|-x-|---|---|---|
G |-x-|---|---|---|---|
D |---|---|-x-|---|---|
A |---|---|---|-x-|---|
E |---|---|---|---|---|
(head) The high inside your head C
C
e |---|---|-x-|---|---|
B |-x-|---|---|---|---|
G |---|---|---|---|---|
D |---|-x-|---|---|---|
A |---|---|-x-|---|---|
E |---|---|---|---|---|
(blind) The blindest of the blind F
F
e |-x-|---|---|---|---|
B |-x-|---|---|---|---|
G |---|-x-|---|---|---|
D |---|---|-x-|---|---|
A |---|---|-x-|---|---|
E |-x-|---|---|---|---|
(dead) The deadest of the dead Eb
Eb
e |-x-|---|---|---|---|
B |---|-x-|---|---|---|
G |-x-|---|---|---|---|
D |---|---|-x-|---|---|
A |---|---|---|-x-|---|
E |---|---|---|---|---|
(starved) Your hungry cause your starved C
C
e |---|---|-x-|---|---|
B |-x-|---|---|---|---|
G |---|---|---|---|---|
D |---|-x-|---|---|---|
A |---|---|-x-|---|---|
E |---|---|---|---|---|
(tears) While holing back the tears Eb
Eb
e |-x-|---|---|---|---|
B |---|-x-|---|---|---|
G |-x-|---|---|---|---|
D |---|---|-x-|---|---|
A |---|---|---|-x-|---|
E |---|---|---|---|---|
(smile) You choke behind a smile (No Chord for rest of chorus) A fake behind the fear The queerest of the queer For this part here are 2 guitar parts. Bb
Bb
e |---|---|---|---|---|
B |---|---|-x-|---|---|
G |---|---|-x-|---|---|
D |---|---|-x-|---|---|
A |-x-|---|---|---|---|
E |---|---|---|---|---|
Gb
Gb
e |---|-x-|---|---|---|
B |---|-x-|---|---|---|
G |---|---|-x-|---|---|
D |---|---|---|-x-|---|
A |---|---|---|-x-|---|
E |---|-x-|---|---|---|
F
F
e |-x-|---|---|---|---|
B |-x-|---|---|---|---|
G |---|-x-|---|---|---|
D |---|---|-x-|---|---|
A |---|---|-x-|---|---|
E |-x-|---|---|---|---|
|-------------------------| |-------------------------| |--3----------------------| |--3-----4-----3----------| |--1-----4-----3----------| |--------2-----1----------| Riff A (You Can Touch Me If You Want) E-------------------I B-------------------I G-------------------I D---8---6---3---6---I A-------------------I E-------------------I Bb
Bb
e |---|---|---|---|---|
B |---|---|-x-|---|---|
G |---|---|-x-|---|---|
D |---|---|-x-|---|---|
A |-x-|---|---|---|---|
E |---|---|---|---|---|
Gb
Gb
e |---|-x-|---|---|---|
B |---|-x-|---|---|---|
G |---|---|-x-|---|---|
D |---|---|---|-x-|---|
A |---|---|---|-x-|---|
E |---|-x-|---|---|---|
(good) I know what's good for you (You can touch me if you want) Bb
Bb
e |---|---|---|---|---|
B |---|---|-x-|---|---|
G |---|---|-x-|---|---|
D |---|---|-x-|---|---|
A |-x-|---|---|---|---|
E |---|---|---|---|---|
F
F
e |-x-|---|---|---|---|
B |-x-|---|---|---|---|
G |---|-x-|---|---|---|
D |---|---|-x-|---|---|
A |---|---|-x-|---|---|
E |-x-|---|---|---|---|
(dyin) I know you're dying to (You can touch me if you want) Bb
Bb
e |---|---|---|---|---|
B |---|---|-x-|---|---|
G |---|---|-x-|---|---|
D |---|---|-x-|---|---|
A |-x-|---|---|---|---|
E |---|---|---|---|---|
Gb
Gb
e |---|-x-|---|---|---|
B |---|-x-|---|---|---|
G |---|---|-x-|---|---|
D |---|---|---|-x-|---|
A |---|---|---|-x-|---|
E |---|-x-|---|---|---|
(good) I know what's good for you (You can touch me if you want) Bb
Bb
e |---|---|---|---|---|
B |---|---|-x-|---|---|
G |---|---|-x-|---|---|
D |---|---|-x-|---|---|
A |-x-|---|---|---|---|
E |---|---|---|---|---|
F
F
e |-x-|---|---|---|---|
B |-x-|---|---|---|---|
G |---|-x-|---|---|---|
D |---|---|-x-|---|---|
A |---|---|-x-|---|---|
E |-x-|---|---|---|---|
(stop) But you can't stop Chorus 3: G
G
e |---|---|-x-|---|---|
B |---|---|---|---|---|
G |---|---|---|---|---|
D |---|---|---|---|---|
A |---|-x-|---|---|---|
E |---|---|-x-|---|---|
(queer) The queerest of the queer Eb
Eb
e |-x-|---|---|---|---|
B |---|-x-|---|---|---|
G |-x-|---|---|---|---|
D |---|---|-x-|---|---|
A |---|---|---|-x-|---|
E |---|---|---|---|---|
(strange) The strangest of the strange C
C
e |---|---|-x-|---|---|
B |-x-|---|---|---|---|
G |---|---|---|---|---|
D |---|-x-|---|---|---|
A |---|---|-x-|---|---|
E |---|---|---|---|---|
(cool) The coldest of the cool F
F
e |-x-|---|---|---|---|
B |-x-|---|---|---|---|
G |---|-x-|---|---|---|
D |---|---|-x-|---|---|
A |---|---|-x-|---|---|
E |-x-|---|---|---|---|
(lame) The lamest of the lame G
G
e |---|---|-x-|---|---|
B |---|---|---|---|---|
G |---|---|---|---|---|
D |---|---|---|---|---|
A |---|-x-|---|---|---|
E |---|---|-x-|---|---|
(dumb) The numbest of the dumb Eb
Eb
e |-x-|---|---|---|---|
B |---|-x-|---|---|---|
G |-x-|---|---|---|---|
D |---|---|-x-|---|---|
A |---|---|---|-x-|---|
E |---|---|---|---|---|
(here) I hate to see you here C
C
e |---|---|-x-|---|---|
B |-x-|---|---|---|---|
G |---|---|---|---|---|
D |---|-x-|---|---|---|
A |---|---|-x-|---|---|
E |---|---|---|---|---|
(smile) You choke behind a smile F
F
e |-x-|---|---|---|---|
B |-x-|---|---|---|---|
G |---|-x-|---|---|---|
D |---|---|-x-|---|---|
A |---|---|-x-|---|---|
E |-x-|---|---|---|---|
(fear) A fake behind the fear G
G
e |---|---|-x-|---|---|
B |---|---|---|---|---|
G |---|---|---|---|---|
D |---|---|---|---|---|
A |---|-x-|---|---|---|
E |---|---|-x-|---|---|
(queer) The queerest of the queer Eb
Eb
e |-x-|---|---|---|---|
B |---|-x-|---|---|---|
G |-x-|---|---|---|---|
D |---|---|-x-|---|---|
A |---|---|---|-x-|---|
E |---|---|---|---|---|
(strange) The strangest of the strange C
C
e |---|---|-x-|---|---|
B |-x-|---|---|---|---|
G |---|---|---|---|---|
D |---|-x-|---|---|---|
A |---|---|-x-|---|---|
E |---|---|---|---|---|
(cool) The coldest of the cool F
F
e |-x-|---|---|---|---|
B |-x-|---|---|---|---|
G |---|-x-|---|---|---|
D |---|---|-x-|---|---|
A |---|---|-x-|---|---|
E |-x-|---|---|---|---|
(here) You're nothing special here A fake behind the fear The queerest of the queer Play The Intro Riff for this part. Guitar 1 |----------------| |----------------| |-0-3-5--5b6r5-3-| |----------------| |----------------| |----------------| Guitar 2 |-20----------------------| |-------20----------------| |-------------19----------| |-------------------20----| |-------------------------| |-------------------------| I know what's good for you I know you're dying to I know what's good for you I bet you're dying to You can touch me if you want You can touch me if you want You can touch me You can touch me But you can't stop

Added On December 4th, 2013

SHARE

Comments

blog comments powered by Disqus

VERSIONS

ADVERTISEMENT