Garth Brooks Tabs

Friends In Low Places Solo

2 versions

TAB

            Friends In Low Places Tab by Garth Brooks


Garth Brooks
Friends in Low Places
Tabbed by Trevor Mino

-----------------------------------------------------------------------
|                                Key                                   |
-----------------------------------------------------------------------
|                                                                      |
| b - bend     r - release (bend)      h - hammer-on      p - pull-off |
|                                                                      |
-----------------------------------------------------------------------

E|-------------------------------------------------------------------------|
B|-------------------------------------------------------------------------|
G|---9b11-11-11-11-11r9--6-------------------------------------------------|
D|-------------------------9-9b11-9b11r9-7~-7\-----------------------------|
A|-------------------------------------------------------7-----------------|
E|-----------------------------------------------/5--7h9-------------------|

E|-------------------------------------------------------------------------|
B|-------------------------------------------------------------------------|
G|-----------------------------9b11-9--------6-----------------------------|
D|-----9b11-9b11-9b11r9p7-9-7----------9-7-9---9---------------------------|
A|---7------------------------------------------------9b11r9-7-------------|
E|-------------------------------------------------------------------------|

E|-------------------------------------------------------------------------|
B|-------------------------------------------------------------------------|
G|-------------------------------------------------------------------------|
D|-------------------------------------------------------------------------|
A|------------------7------------------------------------------------------|
E|---7b9r7-5--5-7/9---9\7-5~-----------------------------------------------|    

Added On December 4th, 2013

SHARE

Comments

blog comments powered by Disqus

VERSIONS

ADVERTISEMENT