Gary Jules Tabs

Falling Awake

4 versions

TAB

            Falling Awake Tab by Gary Jules


Standard tuning, EADGBe, No capo.
~ = Let it ring
x = lightly muted
Intro
e[--------------------------------] x5
B[------1-1---1-------------------]
G[----2-----2---------------------]
D[--3-----------------------------]
A[--------------------------------]
E[--------------------------------]

Verse + Chorus
e[--------------------------------]
B[------1-1---1-----1-1---1-------]
G[----2-----2-----2-----2---------]
D[--3-----------3-----------------]
A[--------------------------------]
E[--------------------------------]
    ~            ~
    Eagle in the-

    Am                        D
e[-----------------------------------------------------]
B[------1-1---1-----1-1---1-------3-3---3-----3-3---3--]
G[----2-----2-----2-----2-------2-----2-----2-----2----]
D[--2-----------2-------------0-----------0------------]
A[-----------------------------------------------------]
E[-----------------------------------------------------]
    ~           ~             ~
    dark...                       Feathers in the-

e[--------------------------------]
B[------1-1---1-----1-1---1-------]
G[----3-----3-----3-----3---------]
D[--3-----------3-----------------]
A[--------------------------------]
E[--------------------------------]
   paaageess...

Bridge
This plays with the keyboard 
and verse guitar in the background.
e[--1----5--3----1-------5----1---1----5--3--5-3-1----]
B[-----3---3--------3---3------------3---3--------2/3-]
G[----------------------------------------------------]
D[----------------------------------------------------]
A[----------------------------------------------------]
E[----------------------------------------------------]
       x   x                             x

Verse 2
Played in chords, sweeped in a slick strum.
   
e[---------------------------]
B[-------------3-------------]
G[---2----2---2---3----------]
D[--3----2---0----3----------]
A[-0----0--------------------]
E[---------------------------]
   ~~~  ~~~  ~~~

Fades out playing mostly the Bridge.    

Added On December 4th, 2013

SHARE

Comments

blog comments powered by Disqus

VERSIONS

ADVERTISEMENT