Gary Jules Tabs

Mad World

20 versions

TAB

            Mad World Tab by Gary Jules


            Gary /jules - Mad World (theme from 'Donnie Darko')

tabbed by: chelz

[.]= short pause
[}]= pause

intro:
]----2-----------------------2---------0-2----------|
]--3--2-3-0-2------------0-3--2-3-0-2-3-------------|
]-------------2-1------1----------------------------|
]-----------------2-.-2-----------------------------|
]---------------------------------------------------|
]---------------------------------------------------|


verses:
]-------------2-2-2---0-0-0--0-0-0-------|
]-0-0-3-3-0-0-------3-------2------3-2-0-|
]----------------------------------------| repeat x1 . then repeat x2
]----------------------------------------|
]----------------------------------------|
]----------------------------------------|
all around me are...

higher part:
]---------2-2-4-0-.-0-4-4-0-0---------|
]-0-0-3-3--------------------0--------|
]-------------------------------------|     > repeat x3 but only using 1 '0'
]-------------------------------------|       on the 2nd and 3rd time.
]-------------------------------------|
]-------------------------------------|
and i find it kinda funny...


chorus:
]---------2-2-4-0-.-0-0-4-4-0-0------------0---|
]-0-0-3-3-----------------------}-3-0-.--3---0-|
]----------------------------------------------|
]----------------------------------------------|
]----------------------------------------------|
]----------------------------------------------|
..run in circles its a very,very, mad world...

repeat the whole thing once more

extra bit (played quietly at the end of chorus):
]--------------0---|
]-0-3-3-3-0.-3---0-|
]------------------|
]------------------|
]------------------|
]------------------|
enlargen your world:

any questions email: chelsey_91@yahoo.co.uk    

Added On December 4th, 2013

SHARE

Comments

blog comments powered by Disqus