Gary Jules Tabs

Mad World Acoustic

1 versions

TAB

            Mad World (Acoustic)

Capo 1st fret


 Intro
|----7-------------------------|----7---------------------------||
|--8---7-8---7-----------------|/8-----7-8---7-8-10-------------||
|----------9---7-6-----2-----2-|-----------9------------2-----2-||
|----------------------2-----2-|------------------------2-----2-||
|------7-------7----0-----0----|-------7-------7-----0-----0----||
|--0-------0-------------------|---0-------0--------------------||

  Verse chord Progression: Em, G, D, A
 Chorus chord Progression: Em, A, Em, A, Em, A, Em, A

 Chorus Riff


|-----------------------------|----7---------------------------||
|--8-8-7-7--------------------|/8-----7-8---7-8-10-------------||
|----------9-9-7-6----2-----2-|-----------9------------2-----2-||
|---------------------2-----2-|------------------------2-----2-||
|------7-------7---0-----0----|-------7-------7-----0-----0----||
|--0-------0------------------|---0-------0--------------------||




 Please leave a comment or send me a message and tell what you think

 krazy_native_420@hotmail.com    

Added On December 16th, 2013

SHARE

Comments

blog comments powered by Disqus

ADVERTISEMENT