Gary Moore Tabs

Dunluce Part 1

1 versions

TAB

            #----------------------------------PLEASE NOTE--------------------------------#
#This file is the author's own work and represents their interpretation of the#
#song. You may only use this file for private study, scholarship, or research.#
#-----------------------------------------------------------------------------#





-------------------------------------------------------------------------------
                             Dunluce (Part 1) - Gary Moore
-------------------------------------------------------------------------------
Tabbed by: JaLe
E-mail: jakobhp@web.de



e|----------------------------------------12---------------------------------|
B|-10-----12h14h15-------(15p)14h15----------15------------------------------|
G|----------------------------------------------14---------------------------|
D|---------------------------------------------------------------------------|
A|---------------------------------------------------------------------------|
E|---------------------------------------------------------------------------|

e|--7h9h10------10-----------------------------------------------------------|
B|------------------10----------------------7h8-b10------7---5---------------|
G|----------------------11--b12----------------------------------------------|
D|---------------------------------------------------------------------------|
A|---------------------------------------------------------------------------|
E|---------------------------------------------------------------------------|

e|---------------------------------------------------------------------------|
B|------8--7---3-------------------------------------------------------------|
G|----------------2--4-b5--------(4)b5rb4------------------------------------|
D|-----------------------------------------5--------(4)b5rb4-----------------|
A|------------------------------------------------------------5--------------|
E|---------------------------------------------------------------------------|




************************************

| /   slide up
| \   slide down
| h   hammer-on
| p   pull-off
| ~   vibrato
| +   harmonic
| x   Mute note
| b   Bend
| pb  Pre-bend
| br  Bend release
| pbr Pre-bend release
| brb Bend release bend

************************************    

Added On December 16th, 2013

SHARE

Comments

blog comments powered by Disqus

ADVERTISEMENT