Gary Moore Tabs

Strangers In The Darkness

1 versions

TAB

            Strangers In The Darkness Tab by Gary Moore


Artist    ~ Gary Moore
Song      ~ Strangers in the darkness
Tabbed by ~ Terry Sims (Masterofdarknes)
Email     ~ Floyd_Fan89@teenspot.com


e|--------------6---------------------------------------------------|
B|------------8---8-8--4-6s8-6--------------------------------------|
G|------------------------------------------------------------------|
D|-------s8-5-------------------------------------------------------|
A|-3-3-3------------------------------------------------------------|
E|------------------------------------------------------------------|

e|-----------15b17-15-15-16b18-16-16--18-20-20b22-20----------------|
B|-13-13-13---------------------------------------------------------|
G|------------------------------------------------------------------|
D|------------------------------------------------------------------|
A|------------------------------------------------------------------|
E|------------------------------------------------------------------|    

Added On December 4th, 2013

SHARE

Comments

blog comments powered by Disqus

ADVERTISEMENT