Genesis Tabs

I Cant Dance

4 versions

TAB

            I Cant Dance Tab by Genesis


----------------------------------------------------------------------------
			     I CAN'T DANCE - Genesis
----------------------------------------------------------------------------
Tabbed by: Mr. Saboteur
Email: a_roome_8@hotmail.com

Tuning: standard

Chords
e|-----------------------------|
B|-----------------------------|
G|---------6-------8------4----|
D|-8---6---6-------8------4----|
A|-8---6---4-------6------2----|
E|-6---4-----------------------|
   Bbm G#m C#add9  D#add9 Badd9

Intro 2x
e|------------------------------------------|
B|------------------------------------------|
G|----------------------------------6-8---8-|
D|6-6-8--8----8--6-8---6-6-8--8---6-6-8--88-|
A|6-6-8--8----8--6-8---6-6-8--8---6-4-6---6-|
E|4-4-6--6----6--4-6---4-4-6--6---4---------|

Verse 1
G#m Bbm       Bbm G#m Bbm
       Hot sun beating down
       Hot sun making me sweat
G#m  Bbm             G#m C#add9 D#add9 
Burning my feet just walking around.
gators getting close, hasn't got me yet

Chorus
G#m Bbm           Bbm G#m Bbm
    I cant dance, I cant talk.
    I cant dance, I cant sing
G#m Bbm                        G#m C#add9 D#add9 
    Only thing about me is the way I walk.
    Im just standing here selling everything.

Verse 2
Blue jeans sitting on the beach,
Her dogs talking to me, but shes out of reach.
Shes got a body under that shirt,
But all she wants to do is rub my face in the dirt.

[Chorus]

Bridge
       C#add9                    Cadd9
Oh and checking everything is in place,
          Bbm
You never know whos looking on.

Verse 3
Young punk spilling beer on my shoes,
Fat guys talking to me trying to steal my blues.
Thick smoke, see her smiling through.
I never thought so much could happen just shooting pool.

[Chorus]

Bridge
       C#add9                    Cadd9
Oh and checking everything is in place
          Bbm
You never know whos looking on
C#add9              Badd9               G#m
      A perfect body     with a perfect face - uh-huh.

[Chorus until fade]

| /  slide up
| \  slide down
| h  hammer-on
| p  pull-off
| ~  vibrato
| +  harmonic
| x  Mute note
============================================================================    

Added On December 4th, 2013

SHARE

Comments

blog comments powered by Disqus

VERSIONS

ADVERTISEMENT