Genesis Tabs

Musical Box

5 versions

TAB

            -------------------------------------------------------------------------------
                     The Musical Box Ending - Genesis
-------------------------------------------------------------------------------
From "Nursery Cryme"
Tabbed by:thepinkfloyder1000

Tuning:Standard

Repeat this part twice
e|---------------------------------------|
B|---------------------------------------|
G|---------------------------------------|
D|--8--6--8--6-----6-----6--8--6-----6---|
A|--------------9-----9-----------9------|
E|---------------------------------------|
Play this part twice as well
e|-------------------------------------------|
B|-11--9--11--9------9------9--11--9------9--|
G|---------------11-----11------------11-----|
D|-------------------------------------------|
A|-------------------------------------------|
E|-------------------------------------------|

e|------------------------------6-6b-6-------6-6b-6----14-16-16b-16-16----|
B|-----------9----------9b-9-9---------7----------------------------------|
G|-11--10h11---11-10-11-------------------6-------------------------------|
D|------------------------------------------------------------------------|
A|------------------------------------------------------------------------|
E|------------------------------------------------------------------------|

e|-18b-18---------21b-21-----18-16-18-16-18-16-18-16-18-16-18-16-18-16-18-16-|
B|--------19--19---------19--------------------------------------------------|
G|---------------------------------------------------------------------------|
D|---------------------------------------------------------------------------|
A|---------------------------------------------------------------------------|
E|---------------------------------------------------------------------------|

e|-14----14--14-----2--------------------------------------------------------|
B|----14-------14---2--------------------------------------------------------|
G|------------------3--------------------------------------------------------|
D|------------------4--------------------------------------------------------|
A|------------------4--------------------------------------------------------|
E|------------------2--------------------------------------------------------|    

Added On December 16th, 2013

SHARE

Comments

blog comments powered by Disqus

VERSIONS

ADVERTISEMENT