Genghar Tabs

Fill My Gums With Blood

1 versions

TAB

            Fill My Gums With Blood
Genghar
A Dream Outside (2015)

Transcribed by: Saviano P.

[Intro]
 Guitar 1 (Plucked)
e|---------------------------------------------------------------------------------------------|
B|---------------------------------------------------------------------------------------------|
G|---------------------------------------------------------------------------------------------|
D|--4--x-2-4--x-2--4--x-2-4---x---5--x--5--4--x--4--2--x--2--0--x-0--5-x--5--4--7--9--x--9--7--|
A|--5--x-3-5--x-3--5--x-3-5---x---5--x--5--5--x--5--3--x--3--2--x-2--5-x--5--5--5--7--x--7--5--|
E|--5--x-3-5--x-3--5--x-3-5---x---7--x--7--5--x--5--3--x--3--3--x-3--7-x--7--5--5--7--x--7--5--|
  
[Verse]
 Guitar 1 (plucked):
e|----------------------------------------------------------------------------------------------|
B|----------------------------------------------------------------------------------------------|
G|----------------------------------------------------------------------------------------------|
D|--4--x-2-4--x-2--4--x-2-4---x---5--x--5--4--x--4--2--x--2--0--x--0--5-x--5--4--7--9--x--9--7--|
A|--5--x-3-5--x-3--5--x-3-5---x---5--x--5--5--x--5--3--x--3--2--x--2--5-x--5--5--5--7--x--7--5--|
E|--5--x-3-5--x-3--5--x-3-5---x---7--x--7--5--x--5--3--x--3--3--x--3--7-x--7--5--5--7--x--7--5--|

 Guitar 2:
e|-----------(5)-----(10)--------------5-----5-------5-------5-------5-------5-------5-------5---|
B|-----------(3)-----(10)------------3-----3---3---3---3---3---3---3---3---3---3---3---3---3---3-|
G|-----------(4)-----(11)----------4-------------4---------------4---------------4---------------|
D|-----------(5)-------------------------5---------------5---------------5---------------5-------|
A|-----------(3)---------------------------------------------------------------------------------|
E|-----------------------------------------------------------------------------------------------|

[Chorus]
e|--5-5-x-5--5-5-x-5--3-3-x-3--3-3-x-3--|
B|--7-7-x-3--5-5-x-3--3-3-x-3--3-3-x-3--|
G|--7-7-x-4--6-6-x-4--4-4-x-4--4-4-x-4--|
D|--7-7-x-5--7-7-x-5--5-5-x-5--5-5-x-5--| 
A|--5-5-x-3--7-7-x-3--5-5-x----5-5-x----|
E|-----------5-5------3-3-x----3-3------|
    Fill my gums with blood
 
[Bridge]
e|------------------------------------------------------------|
B|------------------------------------------------------------|
G|------------------------------------------------------------|
D|---9--x--9--8--x--8--4--x-4-0--x-0-5--x-5-4--x-4-2--x-2-0---|
A|--10--x-10-10--x-10--5--x-5-2--x-2-5--x-5-5--x-5-3--x-3-2---|
E|--10--x-10-10--x-10--5--x-5-3--x-3-7--x-7-5--x-5-3--x-3-3---|

[Outro]
e|-5-5-x-5--5-5-x-5-|
B|-7-7-x-5--7-7-x-3-|
G|-7-7-x-6--7-7-x-4-|
D|-7-7-x-7--7-7-x-5-|
A|-5-5-x-7--5-5-x-3-|
E|-------5----------|


************************************

| x    Dead note
| (n)  Ghost note

************************************    

Added On April 20th, 2017

SHARE

Comments

blog comments powered by Disqus

ADVERTISEMENT