Germs Tabs

Dragon Lady

1 versions

TAB

            Hey guys, Im gonna try and tab "Dragon Lady" by The Germs, pretty good song.
Album:(MIA)
KEY: * = palm mute
something like this, the chords are correct, but im not sure about the timing.
VERSES
e|-------------------------------------------------|
B|-------------------------------------------------|
G|-------------------------------------------------|
D|-2222-444-22--44-22222---------------------------|
A|-2222-444-22--44-22222---------------------------|
E|-0000-222-00--22-00000---------------------------|
                   *****

CHORUS
e|-------------------------------------------------|
B|-------------------------------------------------|
G|-------------------------------------------------|
D|--77777---99999----------------------------------|
A|--77777---99999----------------------------------|
E|--55555---77777----------------------------------|

BRIDGE
e|-------------------------------------------------|
B|-------------------------------------------------|
G|-------------------------------------------------|
D|-7777-8888-10101010------------------------------|
A|-7777-8888-10101010------------------------------|
E|-5555-6666-8-8-8-8-------------------------------|    

Added On December 16th, 2013

SHARE

Comments

blog comments powered by Disqus

ADVERTISEMENT