Ghost Of The Robot Tabs

Liar

1 versions

TAB

            Liar Tab by Ghost Of The Robot


	     Liar - Ghost of the Robot
-------------------------------------------------------------------------------

Tabbed by:Peter 'The Bloody' Harrison
This is my first TAB and I have only heard the sample but it is very easy to
play if you know the tune.  To hear the sample go the www.ghostoftherobot.com.
Ghost of the Robot consist of five players, James Marsters is the singer and
guitarist, Kevin, Steve, Aaron and Charlie.  Their new ablum is called 'Mad Brilliant'.
They are from LA.    

Verse:
e|--------|--------|--------|--------|
B|--------|--------|--------|--------|
G|--------|--------|--------|--------|
D|-9-9-9-9|-7-7-7-7|-5-5-5-5|-5-5-5-5|x4
A|-9-9-9-9|-7-7-7-7|-5-5-5-5|-5-5-5-5|
E|-7-7-7-7|-5-5-5-5|-3-3-3-3|-3-3-3-3|

Chorus:
   \  \  \  /  /  \  /  \  /  \ \ \ / / \ / \ /
e|-0--0--0--0--0--0--0--0--0|-0-0-0-0-0-0-0-0-0|
B|-0--0--0--0--0--0--0--0--0|-0-0-0-0-0-0-0-0-0|
G|11-11-11-11-11-11-11-11-11|-9-9-9-9-9-9-9-9-9|
D|-0--0--0--0--0--0--0--0--0|-0-0-0-0-0-0-0-0-0|x4
A|12-12-12-12-12-12-12-12-12|-8-8-8-8-8-8-8-8-8|
E|--------------------------|------------------|

| \ Stroke down
| / Stroke up    

Added On December 4th, 2013

SHARE

Comments

blog comments powered by Disqus

ADVERTISEMENT