Glen Hansard And Marketa Irglova Tabs

All The Way Down

4 versions

TAB

            sad, dark tune from the movie "once". good flick, worth checking out for sure. follow 
and you can't go wrong! Enjoy - JW

Verse: root of Bm with different bass notes (hit bass note on E or A string and then 
rest, listen to the track, you'll see):

   1Bar   1Bar       2Bars
E--2-2-2--2-2-2------2-2-2]
B--3-3-3--3-3-3------3-3-3]
G--4-4-4--4-4-4------4-4-4]
D--4-4-4--4-4-4------4-4-4]
A-2------0-----------x-x-x]
E-------------------3-----]

Bridge:
      F#m
F#m
e |---|-x-|---|---|---|
B |---|-x-|---|---|---|
G |---|-x-|---|---|---|
D |---|---|---|-x-|---|
A |---|---|---|-x-|---|
E |---|-x-|---|---|---|
G
G
e |---|---|-x-|---|---|
B |---|---|---|---|---|
G |---|---|---|---|---|
D |---|---|---|---|---|
A |---|-x-|---|---|---|
E |---|---|-x-|---|---|
(and) Some fight you gave A
A
e |---|---|---|---|---|
B |---|-x-|---|---|---|
G |---|-x-|---|---|---|
D |---|-x-|---|---|---|
A |---|---|---|---|---|
E |---|---|---|---|---|
F#m
F#m
e |---|-x-|---|---|---|
B |---|-x-|---|---|---|
G |---|-x-|---|---|---|
D |---|---|---|-x-|---|
A |---|---|---|-x-|---|
E |---|-x-|---|---|---|
G
G
e |---|---|-x-|---|---|
B |---|---|---|---|---|
G |---|---|---|---|---|
D |---|---|---|---|---|
A |---|-x-|---|---|---|
E |---|---|-x-|---|---|
When I pushed you away A
A
e |---|---|---|---|---|
B |---|-x-|---|---|---|
G |---|-x-|---|---|---|
D |---|-x-|---|---|---|
A |---|---|---|---|---|
E |---|---|---|---|---|
From me Chorus: D
D
e |---|-x-|---|---|---|
B |---|---|-x-|---|---|
G |---|-x-|---|---|---|
D |---|---|---|---|---|
A |---|---|---|---|---|
E |---|---|---|---|---|
A
A
e |---|---|---|---|---|
B |---|-x-|---|---|---|
G |---|-x-|---|---|---|
D |---|-x-|---|---|---|
A |---|---|---|---|---|
E |---|---|---|---|---|
(and) In the morning Bm
Bm
e |---|-x-|---|---|---|
B |---|---|-x-|---|---|
G |---|---|---|-x-|---|
D |---|---|---|-x-|---|
A |---|-x-|---|---|---|
E |---|---|---|---|---|
G
G
e |---|---|-x-|---|---|
B |---|---|---|---|---|
G |---|---|---|---|---|
D |---|---|---|---|---|
A |---|-x-|---|---|---|
E |---|---|-x-|---|---|
When you turn in D
D
e |---|-x-|---|---|---|
B |---|---|-x-|---|---|
G |---|-x-|---|---|---|
D |---|---|---|---|---|
A |---|---|---|---|---|
E |---|---|---|---|---|
A
A
e |---|---|---|---|---|
B |---|-x-|---|---|---|
G |---|-x-|---|---|---|
D |---|-x-|---|---|---|
A |---|---|---|---|---|
E |---|---|---|---|---|
Bm
Bm
e |---|-x-|---|---|---|
B |---|---|-x-|---|---|
G |---|---|---|-x-|---|
D |---|---|---|-x-|---|
A |---|-x-|---|---|---|
E |---|---|---|---|---|
I'll be far to sea Lyrics: ------- You have broken me, all the way down Down upon my knees (and) You have broken me, all the way now You'll be the last, you'll see (and) Some fight you gave When I pushed you away From me (and) In the morning When you turn in I'll be far to sea (and) You have broken me, all the way down You'll be the last, you'll see (and) What chance have we got When you missed every shot From me (and) In the morning When you turn in I'll be out of reach (and) In the darkness When you find this I'll be far to sea (and) You have broken me, all the way down You'll be the last, you'll see

Added On December 16th, 2013

SHARE

Comments

blog comments powered by Disqus

VERSIONS

ADVERTISEMENT