Gojira Tabs

Dawn

2 versions

TAB

            #---------------------------------PLEASE NOTE-------------------------------#
#This file is the author's own work and represents their interpretation of the#
#song. You may only use this file for private study, scholarship, or research.#
#---------------------------------------------------------------------------#
#-- File created with Instab - http://www.pconline.com/~smcarey/instab.html #
#---------------------------------------------------------------------------#

Author/Artist: Gojira
Title: Dawn
Album: The Link
Transcribed by: Jaymz88
DGCFAD

-----------------------------------------------------------------------------|
-----------------------------------------------------------------------------|
----6------------------------------------------------------------------------|
----x--6--7------6--7--9-11--9--7--9--6--------------------------------------|
----4--x--x------x--x--x--x—-x--x--x--x-----x4-------------------------------|
-------4--5------4--5--7--9--7--5--7--4--------------------------------------|


-----------------------------------------------------------------------------|
-----------------------------------------------------------------------------|
-----------------------------------------------------------------------------|
---16----16---16161616161616-------18-----18181818181818---------------------|
----x-----x----x-x-x-x-x-x-x--------x------x-x-x-x-x-x-x---------------------|
---14----14---14141414141414-------16-----16161616161616---------------------|


-----------------------------------------------------------------------------|
-----------------------------------------------------------------------------|
----6------------------------------------------------------------------------|
----x--6--7------6--7--9-11--9--7--9--6--------------------------------------|
----4--x--x------x--x--x--x--x--x--x--x-----x3-------------------------------|
-------4--5------4--5--7--9--7--5--7--4--------------------------------------|

-----------------------------------------------------------------------------|
-----------------------------------------------------------------------------|
-----------------------------------------------------------------------------|
---16----16---16161616161616-------18-----18181818181818---------------------|
----x-----x----x-x-x-x-x-x-x--------x------x-x-x-x-x-x-x---------------------|
---14----14---14141414141414-------16-----16161616161616---------------------|

------------------------------------------------------------------------------|
------------------------------------------------------------------------------|
------------------------------------------------------------------------------|
------------------------------------------------------------------------------|
----2------2--------5-------2--------5--2--4--22------------------------------|
-------2-------2--------2-------2-----------------22--------------------------|
 PM---------------------------------------------------------------------------|

------------------------------------------------------------------------------|
------------------------------------------------------------------------------|
------------------------------------------------------------------------------|
------------------------------------------------------------------------------|
--55--22--44--22-------55--22--44--22-------55--22--44--22------44-55--77-55--|
------------------22-------------------22-------------------22----------------|
 PM---------------------------------------------------------------------------|

----------------|------------------------------------------------------------|
----------------|------------------------------------------------------------|
------------x3--|------------------------------------------------------------|
----------------|------------------------------------------------------------|
-44-22----------|--55--22--44--22------55--22--44--22------55--22--44--22----|
--------22------|------------------22------------------22--------------------|
 ---------       PM----------------------------------------------------------|

-----------------------------------------------------------------------------|
-----------------------------------------------------------------------------|
-----------------------------------------------------------------------------|
-------------------------4------------------5------------------7-------------|
-----44-55--77-55-44-22--x--55--22--44--22--x--55--22--44--22--x--55--22--44-|
-22----------------------2------------------3------------------5-------------|
 -----------------------    --------------     --------------     -----------|

-----------------------------|------------------------------------------------|
-----------------------------|------------------------------------------------|
-----------------------------|------------------------------------------------|
-----5-----------------------|------------------------------------------------|
-22--x--44-55--77-55-44-22---|------------------------------------------------|
-----3---------------------22|------------------------------------------------|
 --     ----------------------------------------------------------------------|    

Added On December 16th, 2013

SHARE

Comments

blog comments powered by Disqus

VERSIONS

ADVERTISEMENT