Gojira Tabs

Link

2 versions

TAB

            Link Tab by Gojira


#----------------------------------PLEASE NOTE------------------------------#
#This file is the author's own work and represents their interpretation of the#
#song. You may only use this file for private study, scholarship, or research.#
#---------------------------------------------------------------------------#
#-- File created with Instab - http://www.pconline.com/~smcarey/instab.html #
#---------------------------------------------------------------------------#

Author/Artist: Gojira
Title: The Link
Album: The Link
Transcribed by: Jaymz88
Drop D

------------------------------------------------------------------------------|
------------------------------------------------------------------------------|
------------------------------------------------------------------------------|
------------------------------------------------------------------------------|
--1-1-1-1-1-1-1-1-1-1-1-1-1-1-1-1-1-0-----x3----------------------------------|
--1-1-1-1-1-1-1-1-1-1-1-1-1-1-1-1-1-0-----------------------------------------|
  PM--------------------------------------------------------------------------|

--------------------------------------0-------|--|
--------------------------------------0-------|--|
--------------------------------------0-------|--|
----------------------------------------------|--|
--1-1-1-1-1-1-1-1-1-1-1-1-1-1-1-1-1-0----x8---|--|
--1-1-1-1-1-1-1-1-1-1-1-1-1-1-1-1-1-0---------|--|
  PM---------------------------------------------| (en remontant avec le mediator)

--------------------------------------0---0-------0---0-----------------------|
--------------------------------------0---0-------0---0-----------------------|
--------------------------------------0---0-------0---0-----------------------|
---------------------------------------------------------5--8--5--3--3--------|
--1-1-1-1-1-1-1-1-1-1-1-1-1-1-1-1-1-0---1---1-1-1---1----x--x--x--x--x--------|
--1-1-1-1-1-1-1-1-1-1-1-1-1-1-1-1-1-0---1---1-1-1---1----3--6--3--1--1--------|
  PM---------------------------------   -   -----   --------------------------|

--------0---0-----0--------0-------0--------0---------------0--------0-------|
--------0---0-----0--------0-------0--------0---------------0--------0-------|
--------0---0-----0--------0-------0--------0---------------0--------0-------|
--------------3-----4--------4-4-----4--------4-4-4-4-4-4-----4--------4-4---|
--1-1-1---1---x-1---x----0---x-x-0---x----0---x-x-x-x-x-x-0---x----0---x-x-0-|
--1-1-1---1---1-1---2----0---2-2-0---2----0---2-2-2-2-2-2-0---2----0---2-2-0-|
 PM----   -     -        -       -        -               -        -       -

-0--------0-----------------|------------------------------------------------|
-0--------0-----------------|------------------------------------------------|
-0--------0-----------------|------------------------------------------------|
---4--------4-4-4-4-4-4-----|---4--5--3----------4--5--3-----2---------------|
---x----0---x-x-x-x-x-x-----|------------5----------------5-----3-------x2---|
---2----0---2-2-2-2-2-2-----|------------------------------------------------|
       PM (doubler cette partie
          à un moment du chant)


------------------------------------------------------------------------------|
------------------------------------------------------------------------------|
------------------------------------------------------------------------------|
------------------------------------------------------------------------------|
--1-1-1-1-1-1-1-1-1-1-1-1-1-1-1-1-1-0----x3-----------------------------------|
--1-1-1-1-1-1-1-1-1-1-1-1-1-1-1-1-1-0-----------------------------------------|
 PM---------------------------------------------------------------------------|

--------------------------------------0------|--------------------------------|
--------------------------------------0------|--------------------------------|
--------------------------------------0------|--------------------------------|
---------------------------------------------|--------------------------------|
--1-1-1-1-1-1-1-1-1-1-1-1-1-1-1-1-1-0-----x4-|--------------------------------|
--1-1-1-1-1-1-1-1-1-1-1-1-1-1-1-1-1-0--------|--------------------------------|
 PM---------------------------------------------------------------------------|

--------------------------------------0---0-------0---------------------0-----|
--------------------------------------0---0-------0---------------------0-----|
--------------------------------------0---0-------0---------------------0-----|
----------------------------------------------------5--8--5--3--3---------4---|
--1-1-1-1-1-1-1-1-1-1-1-1-1-1-1-1-1-0---1---1-1-1---x--x--x--x--x-0-0-0---x---|
--1-1-1-1-1-1-1-1-1-1-1-1-1-1-1-1-1-0---1---1-1-1---3--6--3--1--1-0-0-0---2---|
 PM----------------------------------   -                         ------------|

----0-------0--------0--------------|----------------------------------------|
----0-------0--------0--------------|----------------------------------------|
----0-------0--------0--------------|----------------------------------------|
------4-4-----4--------4-4-4-4-4-4--|--4--5--3--------4--5--3-----2----------|
--0---x-x-0---x----0---x-x-x-x-x-x--|-----------5--------------5-----3----x3-|
--0---2-2-0---2----0---2-2-2-2-2-2--|----------------------------------------|
  PM      -        -

------------------------------------------------------------------------------|
------------------------------------------------------------------------------|
------------------------------------------------------------------------------|
------------------------------------------------------------------------------|
--112233112233----1-2-3-1-3-2--1-2-3-1-3-2----------1-2-3-1-3-2--1-2-3-1-3-2--|
--112233112233----1-2-3-1-3-2--1-2-3-1-3-2-1-1-1-1--1-2-3-1-3-2--1-2-3-1-3-2--|
 PM-----------                            PM----------------------------------|

--------------------------------------------------------------------------0---|
--------------------------------------------------------------------------0---|
--------------------------------------------------------------------------0---|
--55555-----------------------------------------------------------------------|
---------1-2-3-1-3-2--1-2-3-1-3-2-----------1-2-3-1-3-2--1-2-3-1-3-2----------|
---------1-2-3-1-3-2--1-2-3-1-3-2--1-1-1-1--1-2-3-1-3-2--1-2-3-1-3-2--1-1-----|
 harm--                          PM-------                          PM--------|

------------------------------------------------------------------------------|
------------------------------------------------------------------------------|
------------------------------------------------------------------------------|
------------------------------------------------------------------------------|
-11223311-----1-2-3-1-3-2--1-2-3-1-3-2-----------1-2-3-1-3-2--1-2-3-1-3-2-----|
-11223311-----1-2-3-1-3-2--1-2-3-1-3-2--1-1-1-1--1-2-3-1-3-2--1-2-3-1-3-2-----|
 PM------                              PM-------------------------------------|

------------------------------------------------------------------------------|
------------------------------------------------------------------------------|
------------------------------------------------------------------------------|
--55555-----------------------------------------------------------------------|
---------1-2-3-1-3-2--1-2-3-1-3-2-----------1-2-3-1-3-2--1-2-3-1-3-2----------|
---------1-2-3-1-3-2--1-2-3-1-3-2--1-1-1-1--1-2-3-1-3-2--1-2-3-1-3-2--000-0---|
 harm--                          PM-------                            --------|

------|----------------------------------------------------------------------|
------|----------------------------------------------------------------------|
------|----------------------------------------------------------------------|
--x/--|----------------------------------------------------------------------|
--x/--|---9----9----9----9-10-8----8----7-8-7--8-7-8-7-----x4----------------|
------|-----10---10---10--------10---10--------------------------------------|


-----------------------------------------------------------------------------|
-----------------------------------------------------------------------------|
-----------------------------------------------------------------------------|
-----------------------------------------------------------------------------|
--9----9----9----9-10-8----8----7-8-7--8-7-8-7--8-7--8-7-8-7--8-7--8-7-8-8---|
----10---10---10--------10---10----------------------------------------------|    

Added On December 4th, 2013

SHARE

Comments

blog comments powered by Disqus

VERSIONS

ADVERTISEMENT