Good Charlotte Tabs

Festival Song

9 versions

TAB

            Festival Song Tab by Good Charlotte


Festival Song – Good Charlotte

Intro:
e---3-3-3--2-2-2---------------
B---3-3-3--3-3-3---------------
G---2-2-2--2-2-2---------------
D-----------------7-7-7-5-5-5--
A-----------------7-7-7-5-5-5--   
E-----------------5-5-5-3-3-3--

Main Riff x7: verse 1 	        Fill 1
e----------------------         ---
B----------------------         ---
G--7-------------------         ---  x14?
D--7—3x--7-----5----7--         -7-
A--5-----7-3x--5—3x-7—- 3x      -7-
E--------5-----3----5--         -5-  

chorus:
|----------------------------------------------------------|
|----------------------------------------------------------|
|--7---------------------------7-------------4------7------|
|--7(x8)--7------5------7------7------7------4------7------|
|--5------7------5------7------5(x8)--7------2(x8)--5(x8)--|
|---------5(x8)--3(x8)--5(x8)---------5(x8)----------------|

Verse 2: play this after bass plays
                                 Fill 2
|-----------------------         |-------------|
|-----------------------         |-------------|
|--7--------------------         |--7----------|
|--7- 8x --7-7-7--5----- 4x      |--7—3x-7-----|
|--5-------7-7-7--5--5x-         |--5----7-12x-|
|----------5-5-5--3-----         |-------5-----|
  |        PM          |           |   PM     |

Bridge: your future.....       Bridge Fill 
|--------------------------|   |------------------------|
|--------------------------|   |------------------------|
|--4--4--4--4--------------|   |--4---------------------|
|--4--4--4--4--7--7--7--7--|   |--4------5------7-------|
|--2--2--2--2--7--7--7--7--|   |--2(x8)--5------7-------|
|--------------5--5--5--5--|   |---------3(x8)--5(x16)--|

then
-----                    
-----                    
--7--                    
--7--                    
--5--                    
----- ... PICK SLIDE    

Added On December 4th, 2013

SHARE

Comments

blog comments powered by Disqus