Good Charlotte Tabs

The Chronicles Of Life And Death Solo

2 versions

TAB

            The Chronicles Of Life And Death Tab by Good Charlotte


|-------------------------|
|-------------------------|
|-------------------------|
|--9-7-5--7-5-4--5-4-2----|
|7-------5------3-----3-5-|
|-------------------------|

|-------------------------|
|-------------------------|
|-------------------------|
|--9-7-5--7-5-4--5-4-2----|
|7-------5------3-----3-5-|
|-------------------------|

|----------------------------|
|----------------------------|
|9-11-12-10-9-9-14-12-11-9-8-|
|x-x--x--x--x-x-x--x--x--x-x-|
|7-9--10-9--7-7-12-10-9--7-6-|
|----------------------------|

|--------------|
|--------------|
|--------------|
|-9-7-5--7-5-4-|
|7------5------|
|--------------|

|------------------|
|------------------|
|10----14----17----|
|x--x9-x--x5-x--x5-|
|8-----12----15----|
|------------------|
this should be pretty close 
it doesn't need to be down a half step for the solo but it does for the rest of the song
GOOD CHARLOTTE ROX MY SOX!! =:P    

Added On December 4th, 2013

SHARE

Comments

blog comments powered by Disqus

VERSIONS

ADVERTISEMENT