Gordon Lightfoot Tabs

Approaching Lavender

1 versions

TAB

            Approaching Lavender Chords by Gordon Lightfoot

-------------------------------------------------------------------------------
			Approaching Lavender - Gordon Lightfoot
-------------------------------------------------------------------------------
Tabbed by:Travis
Email:desolatinrow128@aim.com


Fingerpicked intro in dropped d tuning and capo on 2nd fret:
e|---------------------|
B|------3----3---3-----|
G|---------2-----------|
D|---0---0----0---0----|
A|-----0----3---2------|
D|-0-------------------|X4

The dropped D tuning is pretty much just necessary for the fingerpick intro, and the
way to play the rest of the rhythm part of the song is with the following chords and a capo
the 4th fret in standard tuning..

G/C
G/C
e |---|---|---|---|---|
B |---|---|---|---|---|
G |-x-|---|---|---|---|
D |---|---|-x-|---|---|
A |---|---|---|-x-|---|
E |---|-x-|---|---|---|
: 320013 Cmaj7
Cmaj7
e |---|---|---|---|---|
B |---|---|---|---|---|
G |---|---|---|---|---|
D |---|-x-|---|---|---|
A |---|---|-x-|---|---|
E |---|---|---|---|---|
:032000 C
C
e |---|---|-x-|---|---|
B |-x-|---|---|---|---|
G |---|---|---|---|---|
D |---|-x-|---|---|---|
A |---|---|-x-|---|---|
E |---|---|---|---|---|
Cmaj7
Cmaj7
e |---|---|---|---|---|
B |---|---|---|---|---|
G |---|---|---|---|---|
D |---|-x-|---|---|---|
A |---|---|-x-|---|---|
E |---|---|---|---|---|
C7
C7
e |---|---|---|---|---|
B |-x-|---|---|---|---|
G |---|---|-x-|---|---|
D |---|-x-|---|---|---|
A |---|---|-x-|---|---|
E |---|---|---|---|---|
F
F
e |-x-|---|---|---|---|
B |-x-|---|---|---|---|
G |---|-x-|---|---|---|
D |---|---|-x-|---|---|
A |---|---|-x-|---|---|
E |-x-|---|---|---|---|
If you'd like to spend the afternoon approaching lavender Fm
Fm
e |-x-|---|---|---|---|
B |-x-|---|---|---|---|
G |-x-|---|---|---|---|
D |---|---|-x-|---|---|
A |---|---|-x-|---|---|
E |-x-|---|---|---|---|
C
C
e |---|---|-x-|---|---|
B |-x-|---|---|---|---|
G |---|---|---|---|---|
D |---|-x-|---|---|---|
A |---|---|-x-|---|---|
E |---|---|---|---|---|
You'll feel just fine but one thing's sure G/C
G/C
e |---|---|---|---|---|
B |---|---|---|---|---|
G |-x-|---|---|---|---|
D |---|---|-x-|---|---|
A |---|---|---|-x-|---|
E |---|-x-|---|---|---|
You'll never be the same C
C
e |---|---|-x-|---|---|
B |-x-|---|---|---|---|
G |---|---|---|---|---|
D |---|-x-|---|---|---|
A |---|---|-x-|---|---|
E |---|---|---|---|---|
Cmaj7
Cmaj7
e |---|---|---|---|---|
B |---|---|---|---|---|
G |---|---|---|---|---|
D |---|-x-|---|---|---|
A |---|---|-x-|---|---|
E |---|---|---|---|---|
C7
C7
e |---|---|---|---|---|
B |-x-|---|---|---|---|
G |---|---|-x-|---|---|
D |---|-x-|---|---|---|
A |---|---|-x-|---|---|
E |---|---|---|---|---|
F
F
e |-x-|---|---|---|---|
B |-x-|---|---|---|---|
G |---|-x-|---|---|---|
D |---|---|-x-|---|---|
A |---|---|-x-|---|---|
E |-x-|---|---|---|---|
If you'd like to try your hand at understanding lavender Fm
Fm
e |-x-|---|---|---|---|
B |-x-|---|---|---|---|
G |-x-|---|---|---|---|
D |---|---|-x-|---|---|
A |---|---|-x-|---|---|
E |-x-|---|---|---|---|
C
C
e |---|---|-x-|---|---|
B |-x-|---|---|---|---|
G |---|---|---|---|---|
D |---|-x-|---|---|---|
A |---|---|-x-|---|---|
E |---|---|---|---|---|
Then you must be very sure G/C
G/C
e |---|---|---|---|---|
B |---|---|---|---|---|
G |-x-|---|---|---|---|
D |---|---|-x-|---|---|
A |---|---|---|-x-|---|
E |---|-x-|---|---|---|
That life is not a game C
C
e |---|---|-x-|---|---|
B |-x-|---|---|---|---|
G |---|---|---|---|---|
D |---|-x-|---|---|---|
A |---|---|-x-|---|---|
E |---|---|---|---|---|
Cmaj7
Cmaj7
e |---|---|---|---|---|
B |---|---|---|---|---|
G |---|---|---|---|---|
D |---|-x-|---|---|---|
A |---|---|-x-|---|---|
E |---|---|---|---|---|
C7
C7
e |---|---|---|---|---|
B |-x-|---|---|---|---|
G |---|---|-x-|---|---|
D |---|-x-|---|---|---|
A |---|---|-x-|---|---|
E |---|---|---|---|---|
F
F
e |-x-|---|---|---|---|
B |-x-|---|---|---|---|
G |---|-x-|---|---|---|
D |---|---|-x-|---|---|
A |---|---|-x-|---|---|
E |-x-|---|---|---|---|
You might even learn a thing or two approaching lavender Fm
Fm
e |-x-|---|---|---|---|
B |-x-|---|---|---|---|
G |-x-|---|---|---|---|
D |---|---|-x-|---|---|
A |---|---|-x-|---|---|
E |-x-|---|---|---|---|
C
C
e |---|---|-x-|---|---|
B |-x-|---|---|---|---|
G |---|---|---|---|---|
D |---|-x-|---|---|---|
A |---|---|-x-|---|---|
E |---|---|---|---|---|
You'll soon be on a one night tour G/C
G/C
e |---|---|---|---|---|
B |---|---|---|---|---|
G |-x-|---|---|---|---|
D |---|---|-x-|---|---|
A |---|---|---|-x-|---|
E |---|-x-|---|---|---|
Forgetting your own name Same chords throughout...

Added On December 4th, 2013

SHARE

Comments

blog comments powered by Disqus

ADVERTISEMENT