Gorgoroth Tabs

Gorgoroth

1 versions

TAB

            Gorgoroth Tab by Gorgoroth


Artist: Gorgoroth
Title: Gorgoroth
Album: Antichrist

Tabbed by elc (elc@o2.pl;elc@poczta.onet.pl)

Riff 1, tremolo picking, one guitar is playing the upper notes,
second the lower ones
e|-----------------------------------------------------------------|
B|-5-5-5-5-5-5-5-5-5-5-5-5-5-5-5-5-5-5-5-5-5-5-5-5-5-5-5-5-5-5-5-5-|
G|-5-5-5-5-5-5-5-5-5-5-5-5-5-5-5-5-4-4-4-4-4-4-4-4-7-7-7-7-4-4-4-4-|
D|-----------------------------------------------------------------|
A|-----------------------------------------------------------------|
E|-----------------------------------------------------------------|

Riff 2, tremolo picking,
e|----------------|---------------|---------------|----------------|
B|----------------|---------------|---------------|4-4-4-----------|
G|-5-5-5-5-5-5-7-7|5-5-5-4-4-4----|4-4-4-5-5-5-7-7|------7-7-7-----|
D|----------------|------------7-7|---------------|------------4-4-|
A|----------------|---------------|---------------|----------------|
E|----------------|---------------|---------------|----------------|

e|----------------|---------------|---------------|----------------|
B|----------------|---------------|---------------|----------------|
G|-5-5-5-5-5-5-5-5|5-5-5-5-5-5-5-5|4-4-4-4-4-4-4-5|4-4-4-4-4-4-4-4-|
D|----------------|---------------|---------------|----------------|
A|----------------|---------------|---------------|----------------|
E|----------------|---------------|---------------|----------------|

Riff 3, "normal" picking, this riff is played as a background with many riffs
tabbed below,
e|-------------------------------------------------|
B|-------------------------------------------------|
G|-2---2-2-----2---2-2-----2---2-2-----2---2-2-----|
D|-2---2---2---2---2---2---2---2---2---2---2---2---|
A|-0---0-----0-0---0-----0-0---0-----0-2---2-----2-|
E|-------------------------------------------------|

Riff 4, "normal" picking,
e|-----------------------------------------------------------------|
B|-----------------------------------------------------------------|
G|-------------------------------------------------------------1---|
D|-3---0---2-------3---0---2-------3---0---2-------3---0---2-------|
A|-----------------------------------------------------------------|
E|-----------------------------------------------------------------|

Riff 5, "normal" picking,
e|---------------------------------------------------------17~-17~-|
B|---------------------------------------151715----17182018--------|
G|-----5-4-21----------------------141617------1716----------------|
D|---2-------3-2-----------2-3-2-----------------------------------|
A|-0-------------5-0-2-3-5-------5---------------------------------|
E|-----------------------------------------------------------------|

Riff 6, tremolo picking, notes in brackets () - you can switch between them
or play always the same ones - it sounds good anyway,
e|-----------------------------------------------------------------|
B|---------------------------------------------------------3-------|
G|(2-2)4-5-----4-5(2-2)4-5---5-4-1(2-2)4-5-----4-5(2-2)4-5---5-4-1-|
D|---------3-3-------------3---------------3-3---------------------|
A|(0-0)-----------(0-0)-----------(0-0)-----------(0-0)------------|
E|-----------------------------------------------------------------|

Riff 7, probably played using tapping but I can't figure out most of the
notes.Here are only the three "dominating" ones.Guitar 2 uses tremolo picking
e|-----------------------------------------------------------------|
B|-17--------------13------12--------------------------------------|
G|-----------------------------------------------------------------|
D|-----------------------------------------------------------------|
A|-----------------------------------------------------------------|
E|-----------------------------------------------------------------|
Guitar 2:
e|-----------------------------------------------------------------|
B|-------------------------3-3-------------------------------------|
G|-2---5---4---5---2---5-------5-4-2---5---4---5---2---5---1---4---|
D|-----------------------------------------------------------------|
A|-----------------------------------------------------------------|
E|-----------------------------------------------------------------|

Riff 8, "normal" picking, timing is spaced as correctly as it is possible
but if You should find it difficult to read listen to song to get it right.
e|------------|-----------|-----------|------------|
B|------------|-----------|-----------|------------|
G|-----------9h10-10-----9h10-10-----9h10/-12-\10--|
D|-7~------7--|--------7--|--------7--|------------|
A|------------|-----------|-----------|------------|
E|------------|-----------|-----------|------------|

e|------------|-----------|-----------|------------|
B|------------|-----------|-----------|------------|
G|-9---7------|7----------|-----------|------------|
D|---------10-|----10--9--|10--9---7--|9---10--9---|
A|------------|-----------|-----------|------------|
E|------------|-----------|-----------|------------|

e|------------|-----------|-----------|------------|
B|------------|-----------|-----------|------------|
G|------------|--------7--|----7---9--|7---9---10--|
D|-7---9---10-|9---10-----|10---------|------------|
A|------------|-----------|-----------|------------|
E|------------|-----------|-----------|------------|

e|------------|-----------|-----------|------------|
B|------------|-----------|-----------|------------|
G|-9---7------|7----------|-----------|------------|
D|---------10-|----10--9--|10--9---7--|9---10--9---|
A|------------|-----------|-----------|------------|
E|------------|-----------|-----------|------------|

The rest of the song is Riff 7 played first with and then without the
tapping part. If anyone has the tapping part of riff7 please send it to me.    

Added On December 4th, 2013

SHARE

Comments

blog comments powered by Disqus

ADVERTISEMENT