Grateful Dead Tabs

Mister Charlie

1 versions

TAB

            You play this riff also during each line of the verse
E------5----------------------------------------------------|
B------5---5--5---------------------------------------------|
G-----------------7--5--------------------------------------|
D-----------------------7-----------------------------------|
A-----------------------------------------------------------|
E--5--------------------------------------------------------|

A7
A7
e |---|---|---|---|---|
B |---|-x-|---|---|---|
G |---|---|---|---|---|
D |---|-x-|---|---|---|
A |---|---|---|---|---|
E |---|---|---|---|---|
I take a little powder, take a little salt, A7
A7
e |---|---|---|---|---|
B |---|-x-|---|---|---|
G |---|---|---|---|---|
D |---|-x-|---|---|---|
A |---|---|---|---|---|
E |---|---|---|---|---|
Put it in my shotgun, I go walkin' out D7
D7
e |---|-x-|---|---|---|
B |-x-|---|---|---|---|
G |---|-x-|---|---|---|
D |---|---|---|---|---|
A |---|---|---|---|---|
E |---|---|---|---|---|
A7
A7
e |---|---|---|---|---|
B |---|-x-|---|---|---|
G |---|---|---|---|---|
D |---|-x-|---|---|---|
A |---|---|---|---|---|
E |---|---|---|---|---|
joo-ba joo-ba, rolly polly, looking high, looking low, E7
E7
e |---|---|---|---|---|
B |---|---|-x-|---|---|
G |-x-|---|---|---|---|
D |---|---|---|---|---|
A |---|-x-|---|---|---|
E |---|---|---|---|---|
A7
A7
e |---|---|---|---|---|
B |---|-x-|---|---|---|
G |---|---|---|---|---|
D |---|-x-|---|---|---|
A |---|---|---|---|---|
E |---|---|---|---|---|
Gonna scare you up and shoot ya, Mister Charlie told me so. I won't even take your life, won't even take a limb, Just unload my shotgun, and take a little skin. Juba Juba, Wolly Bully, looking high, looking low, Gonna scare you up and shoot ya, Mister Charlie told me so. C
C
e |---|---|-x-|---|---|
B |-x-|---|---|---|---|
G |---|---|---|---|---|
D |---|-x-|---|---|---|
A |---|---|-x-|---|---|
E |---|---|---|---|---|
C#
C#
e |-x-|---|---|---|---|
B |---|-x-|---|---|---|
G |-x-|---|---|---|---|
D |---|---|-x-|---|---|
A |---|---|---|-x-|---|
E |---|---|---|---|---|
D
D
e |---|-x-|---|---|---|
B |---|---|-x-|---|---|
G |---|-x-|---|---|---|
D |---|---|---|---|---|
A |---|---|---|---|---|
E |---|---|---|---|---|
Well you take a silver dollar, C
C
e |---|---|-x-|---|---|
B |-x-|---|---|---|---|
G |---|---|---|---|---|
D |---|-x-|---|---|---|
A |---|---|-x-|---|---|
E |---|---|---|---|---|
C#
C#
e |-x-|---|---|---|---|
B |---|-x-|---|---|---|
G |-x-|---|---|---|---|
D |---|---|-x-|---|---|
A |---|---|---|-x-|---|
E |---|---|---|---|---|
D
D
e |---|-x-|---|---|---|
B |---|---|-x-|---|---|
G |---|-x-|---|---|---|
D |---|---|---|---|---|
A |---|---|---|---|---|
E |---|---|---|---|---|
Take a silver dime, C
C
e |---|---|-x-|---|---|
B |-x-|---|---|---|---|
G |---|---|---|---|---|
D |---|-x-|---|---|---|
A |---|---|-x-|---|---|
E |---|---|---|---|---|
C#
C#
e |-x-|---|---|---|---|
B |---|-x-|---|---|---|
G |-x-|---|---|---|---|
D |---|---|-x-|---|---|
A |---|---|---|-x-|---|
E |---|---|---|---|---|
D
D
e |---|-x-|---|---|---|
B |---|---|-x-|---|---|
G |---|-x-|---|---|---|
D |---|---|---|---|---|
A |---|---|---|---|---|
E |---|---|---|---|---|
Mix it up together E
E
e |---|---|---|---|---|
B |---|---|---|---|---|
G |-x-|---|---|---|---|
D |---|-x-|---|---|---|
A |---|-x-|---|---|---|
E |---|---|---|---|---|
E7
E7
e |---|---|---|---|---|
B |---|---|-x-|---|---|
G |-x-|---|---|---|---|
D |---|---|---|---|---|
A |---|-x-|---|---|---|
E |---|---|---|---|---|
With some alligator wine. I can hear the drums, voodoo all night long, Mister Charlie tellin' me I can't do nothing wrong. Juba Juba, Wolly Bully, looking high, looking low, Gonna scare you up and shoot ya, Mister Charlie told me so. Now Mister Charlie told me, thought you'd like to know, Just a little warning just before you go. joo-ba joo-ba, rolly polly, looking high, looking low, Gonna scare you up and shoot ya, Mister Charlie told me so. Gonna scare you up and shoot ya, 'Cause Mister Charlie told me, Mister Charlie told me so.

Added On December 16th, 2013

SHARE

Comments

blog comments powered by Disqus

ADVERTISEMENT