Green Day Tabs

21 Guns

2 versions

TAB

            -------------------------------------------------------------------------------
			     21 Guns - Green Day
-------------------------------------------------------------------------------
Tabbed by: Adam K.
Email: phixsmusic2@yahoo.com


I can't guarantee that this is perfect, but I can guarantee that this is my first tab ever!

Great song; sorry I didn't post the lead, I'm not very good at hearing lead.
Figuring this out took me a while as it is. Any questions, you can email me.


Rise Against is the best band ever!
(Except for that crappy last album, "Appeal to Reason", RPM is where it's at!!!!)

Chords used:
           (Fmaj)   (A#m/A5) (Cmaj)
e|-----------1-------1------- 0------------------------------------------------|
B|-----------1-------3------- 1------------------------------------------------|
G|-----------2-------3---3--- 0------------------------------------------------|
D|-----------3-------3---3--- 2--------- --------------------------------------|
A|-----------3-------1---1--- 3--------- --------------------------------------|
E|-----------1-------1------- X--------- --------------------------------------|


Tuning: Standard (Low to High) EADGBe


VERSE:

(Just in case it's hard to read, it's all Fmaj, A#, C in the verse

Listen to the song for the rhythm. [Stay on Fmaj and A# for 1 measure, 2 measures for C]

End on Fmaj on "You're in ruins...")


Fmaj
Fmaj
e |-x-|---|---|---|---|
B |-x-|---|---|---|---|
G |---|-x-|---|---|---|
D |---|---|-x-|---|---|
A |---|---|-x-|---|---|
E |-x-|---|---|---|---|
A#m
A#m
e |-x-|---|---|---|---|
B |---|-x-|---|---|---|
G |---|---|-x-|---|---|
D |---|---|-x-|---|---|
A |-x-|---|---|---|---|
E |---|---|---|---|---|
C
C
e |---|---|-x-|---|---|
B |-x-|---|---|---|---|
G |---|---|---|---|---|
D |---|-x-|---|---|---|
A |---|---|-x-|---|---|
E |---|---|---|---|---|
A#m
A#m
e |-x-|---|---|---|---|
B |---|-x-|---|---|---|
G |---|---|-x-|---|---|
D |---|---|-x-|---|---|
A |-x-|---|---|---|---|
E |---|---|---|---|---|
C
C
e |---|---|-x-|---|---|
B |-x-|---|---|---|---|
G |---|---|---|---|---|
D |---|-x-|---|---|---|
A |---|---|-x-|---|---|
E |---|---|---|---|---|
Do you know what's worth fighting for? When it's not worth dying for Fmaj
Fmaj
e |-x-|---|---|---|---|
B |-x-|---|---|---|---|
G |---|-x-|---|---|---|
D |---|---|-x-|---|---|
A |---|---|-x-|---|---|
E |-x-|---|---|---|---|
A#m
A#m
e |-x-|---|---|---|---|
B |---|-x-|---|---|---|
G |---|---|-x-|---|---|
D |---|---|-x-|---|---|
A |-x-|---|---|---|---|
E |---|---|---|---|---|
C
C
e |---|---|-x-|---|---|
B |-x-|---|---|---|---|
G |---|---|---|---|---|
D |---|-x-|---|---|---|
A |---|---|-x-|---|---|
E |---|---|---|---|---|
A#m
A#m
e |-x-|---|---|---|---|
B |---|-x-|---|---|---|
G |---|---|-x-|---|---|
D |---|---|-x-|---|---|
A |-x-|---|---|---|---|
E |---|---|---|---|---|
C
C
e |---|---|-x-|---|---|
B |-x-|---|---|---|---|
G |---|---|---|---|---|
D |---|-x-|---|---|---|
A |---|---|-x-|---|---|
E |---|---|---|---|---|
Does it take your breath away? And you feel yourself suffocating Fmaj
Fmaj
e |-x-|---|---|---|---|
B |-x-|---|---|---|---|
G |---|-x-|---|---|---|
D |---|---|-x-|---|---|
A |---|---|-x-|---|---|
E |-x-|---|---|---|---|
A#m
A#m
e |-x-|---|---|---|---|
B |---|-x-|---|---|---|
G |---|---|-x-|---|---|
D |---|---|-x-|---|---|
A |-x-|---|---|---|---|
E |---|---|---|---|---|
C
C
e |---|---|-x-|---|---|
B |-x-|---|---|---|---|
G |---|---|---|---|---|
D |---|-x-|---|---|---|
A |---|---|-x-|---|---|
E |---|---|---|---|---|
A#m
A#m
e |-x-|---|---|---|---|
B |---|-x-|---|---|---|
G |---|---|-x-|---|---|
D |---|---|-x-|---|---|
A |-x-|---|---|---|---|
E |---|---|---|---|---|
C
C
e |---|---|-x-|---|---|
B |-x-|---|---|---|---|
G |---|---|---|---|---|
D |---|-x-|---|---|---|
A |---|---|-x-|---|---|
E |---|---|---|---|---|
Does the pain weigh out the pride? And you look for a place to hide? Fmaj
Fmaj
e |-x-|---|---|---|---|
B |-x-|---|---|---|---|
G |---|-x-|---|---|---|
D |---|---|-x-|---|---|
A |---|---|-x-|---|---|
E |-x-|---|---|---|---|
A#m
A#m
e |-x-|---|---|---|---|
B |---|-x-|---|---|---|
G |---|---|-x-|---|---|
D |---|---|-x-|---|---|
A |-x-|---|---|---|---|
E |---|---|---|---|---|
C
C
e |---|---|-x-|---|---|
B |-x-|---|---|---|---|
G |---|---|---|---|---|
D |---|-x-|---|---|---|
A |---|---|-x-|---|---|
E |---|---|---|---|---|
Fmaj
Fmaj
e |-x-|---|---|---|---|
B |-x-|---|---|---|---|
G |---|-x-|---|---|---|
D |---|---|-x-|---|---|
A |---|---|-x-|---|---|
E |-x-|---|---|---|---|
Did someone break your heart inside? You're in ruins... C5
C5
e |---|---|---|---|---|
B |---|---|---|---|---|
G |---|---|---|---|-x-|
D |---|---|---|---|-x-|
A |---|---|-x-|---|---|
E |---|---|---|---|---|
e|------------| B|------------| G|-----5------| D|-----5------| A|-----3------| E|------------| CHORUS: e|------------------------------------------------------------------------------| B|------------------------------------------------------------------------------| G|--------- 55 ----77----555\-----33333333 55555555------------------ - --------| D|--- 33----55-----77----555\-----33333333 55555555-----------------------------| A|--- 33----33-----55----333\-----11111111 33333333-----------------------------| E|--- 11------------------------------------------------------------------------| e|------------------------------------------------------------------------------| B|------------------------------------------------------------------------------| G|--------- 55 ----77----555\-----33333333 55555555 33333333 5----- - ----------| D|--- 33----55-----77----555\-----33333333 55555555 33333333 5------------------| A|--- 33----33-----55----333\-----11111111 33333333 11111111 3------------------| E|--- 11------------------------------------------------------------------------| One, 21 guns Lay down your arms Give up the fight One, 21 guns Throw up your arms into the sky You and I VERSE: Fmaj
Fmaj
e |-x-|---|---|---|---|
B |-x-|---|---|---|---|
G |---|-x-|---|---|---|
D |---|---|-x-|---|---|
A |---|---|-x-|---|---|
E |-x-|---|---|---|---|
A#m
A#m
e |-x-|---|---|---|---|
B |---|-x-|---|---|---|
G |---|---|-x-|---|---|
D |---|---|-x-|---|---|
A |-x-|---|---|---|---|
E |---|---|---|---|---|
C
C
e |---|---|-x-|---|---|
B |-x-|---|---|---|---|
G |---|---|---|---|---|
D |---|-x-|---|---|---|
A |---|---|-x-|---|---|
E |---|---|---|---|---|
A#m
A#m
e |-x-|---|---|---|---|
B |---|-x-|---|---|---|
G |---|---|-x-|---|---|
D |---|---|-x-|---|---|
A |-x-|---|---|---|---|
E |---|---|---|---|---|
C
C
e |---|---|-x-|---|---|
B |-x-|---|---|---|---|
G |---|---|---|---|---|
D |---|-x-|---|---|---|
A |---|---|-x-|---|---|
E |---|---|---|---|---|
When you're at the end of the road, and you lost all sense of control... Fmaj
Fmaj
e |-x-|---|---|---|---|
B |-x-|---|---|---|---|
G |---|-x-|---|---|---|
D |---|---|-x-|---|---|
A |---|---|-x-|---|---|
E |-x-|---|---|---|---|
A#m
A#m
e |-x-|---|---|---|---|
B |---|-x-|---|---|---|
G |---|---|-x-|---|---|
D |---|---|-x-|---|---|
A |-x-|---|---|---|---|
E |---|---|---|---|---|
C
C
e |---|---|-x-|---|---|
B |-x-|---|---|---|---|
G |---|---|---|---|---|
D |---|-x-|---|---|---|
A |---|---|-x-|---|---|
E |---|---|---|---|---|
Fmaj
Fmaj
e |-x-|---|---|---|---|
B |-x-|---|---|---|---|
G |---|-x-|---|---|---|
D |---|---|-x-|---|---|
A |---|---|-x-|---|---|
E |-x-|---|---|---|---|
A#m
A#m
e |-x-|---|---|---|---|
B |---|-x-|---|---|---|
G |---|---|-x-|---|---|
D |---|---|-x-|---|---|
A |-x-|---|---|---|---|
E |---|---|---|---|---|
C
C
e |---|---|-x-|---|---|
B |-x-|---|---|---|---|
G |---|---|---|---|---|
D |---|-x-|---|---|---|
A |---|---|-x-|---|---|
E |---|---|---|---|---|
And your thoughts have taken their toll, when your mind breaks the spirit of your soul... Fmaj
Fmaj
e |-x-|---|---|---|---|
B |-x-|---|---|---|---|
G |---|-x-|---|---|---|
D |---|---|-x-|---|---|
A |---|---|-x-|---|---|
E |-x-|---|---|---|---|
A#m
A#m
e |-x-|---|---|---|---|
B |---|-x-|---|---|---|
G |---|---|-x-|---|---|
D |---|---|-x-|---|---|
A |-x-|---|---|---|---|
E |---|---|---|---|---|
C
C
e |---|---|-x-|---|---|
B |-x-|---|---|---|---|
G |---|---|---|---|---|
D |---|-x-|---|---|---|
A |---|---|-x-|---|---|
E |---|---|---|---|---|
Fmaj
Fmaj
e |-x-|---|---|---|---|
B |-x-|---|---|---|---|
G |---|-x-|---|---|---|
D |---|---|-x-|---|---|
A |---|---|-x-|---|---|
E |-x-|---|---|---|---|
A#m
A#m
e |-x-|---|---|---|---|
B |---|-x-|---|---|---|
G |---|---|-x-|---|---|
D |---|---|-x-|---|---|
A |-x-|---|---|---|---|
E |---|---|---|---|---|
C
C
e |---|---|-x-|---|---|
B |-x-|---|---|---|---|
G |---|---|---|---|---|
D |---|-x-|---|---|---|
A |---|---|-x-|---|---|
E |---|---|---|---|---|
Your faith walks on broken glass, and the hangover doesn't pass... Fmaj
Fmaj
e |-x-|---|---|---|---|
B |-x-|---|---|---|---|
G |---|-x-|---|---|---|
D |---|---|-x-|---|---|
A |---|---|-x-|---|---|
E |-x-|---|---|---|---|
A#m
A#m
e |-x-|---|---|---|---|
B |---|-x-|---|---|---|
G |---|---|-x-|---|---|
D |---|---|-x-|---|---|
A |-x-|---|---|---|---|
E |---|---|---|---|---|
C
C
e |---|---|-x-|---|---|
B |-x-|---|---|---|---|
G |---|---|---|---|---|
D |---|-x-|---|---|---|
A |---|---|-x-|---|---|
E |---|---|---|---|---|
Fmaj
Fmaj
e |-x-|---|---|---|---|
B |-x-|---|---|---|---|
G |---|-x-|---|---|---|
D |---|---|-x-|---|---|
A |---|---|-x-|---|---|
E |-x-|---|---|---|---|
Nothing's ever built to last, you're in ruins... C5
C5
e |---|---|---|---|---|
B |---|---|---|---|---|
G |---|---|---|---|-x-|
D |---|---|---|---|-x-|
A |---|---|-x-|---|---|
E |---|---|---|---|---|
e|------------| B|------------| G|-----5------| D|-----5------| A|-----3------| E|------------| CHORUS: e|------------------------------------------------------------------------------| B|------------------------------------------------------------------------------| G|--------- 55 ----77----555\-----33333333 55555555------------------ - --------| D|--- 33----55-----77----555\-----33333333 55555555-----------------------------| A|--- 33----33-----55----333\-----11111111 33333333-----------------------------| E|--- 11------------------------------------------------------------------------| e|-----------------------------------------------------------------------------------| B|-----------------------------------------------------------------------------------| G|--------- 55 ----77----555\-----33333333 55555555 33333333 55555555----- - --------| D|--- 33----55-----77----555\-----33333333 55555555 33333333 55555555----------------| A|--- 33----33-----55----333\-----11111111 33333333 11111111 33333333----------------| E|--- 11-----------------------------------------------------------------------------| One, 21 guns Lay down your arms Give up the fight One, 21 guns Throw up your arms into the sky You and I BRIDGE: e|-----------------------------------------------------------------------------| B|-----------------------------------------------------------------------------| G|----77---33---55---3355----77---33----5555---3322----------------------------| D|----77---33---55---3355----77---33----5555---3322----------------------------| A|----55---11---33---1133----55---11----3333---1100----------------------------| E|-----------------------------------------------------------------------------| e|-----------------------------------------------------------------------------| B|-----------------------------------------------------------------------------| G|----77---33---5555---3333----77777777---55555555-----------------------------| D|----77---33---5555---3333----77777777---55555555-----------------------------| A|----55---11---3333---1111----55555555---33333333-----------------------------| E|-----------------------------------------------------------------------------| Did you try to live on your own, when you burned down the house and home? Did you stand too close to the fire? Like a liar looking for forgiveness from a stone e|-------------------------------------------------------------------------------| B|-------------------------------------------------------------------------------| G|--------- --5555 --7777----5555-----33333333 55555555------------------ - -----| D|--- 3333----5555---7777----5555-----33333333 55555555--------------------------| A|--- 3333----3333---5555----3333-----11111111 33333333--------------------------| E|--- 1111-----------------------------------------------------------------------| e|--------------------------------------------------------------------------| B|--------------------------------------------------------------------------| G|--------- --5555 --7777----5555-----33333333 55555555---3333333322222222--| D|--- 3333----5555---7777----5555-----33333333 55555555---3333333322222222--| A|--- 3333----3333---5555----3333-----11111111 33333333---1111111100000000--| E|--- 1111------------------------------------------------------------------| Fmaj
Fmaj
e |-x-|---|---|---|---|
B |-x-|---|---|---|---|
G |---|-x-|---|---|---|
D |---|---|-x-|---|---|
A |---|---|-x-|---|---|
E |-x-|---|---|---|---|
A#m
A#m
e |-x-|---|---|---|---|
B |---|-x-|---|---|---|
G |---|---|-x-|---|---|
D |---|---|-x-|---|---|
A |-x-|---|---|---|---|
E |---|---|---|---|---|
C
C
e |---|---|-x-|---|---|
B |-x-|---|---|---|---|
G |---|---|---|---|---|
D |---|-x-|---|---|---|
A |---|---|-x-|---|---|
E |---|---|---|---|---|
Fmaj
Fmaj
e |-x-|---|---|---|---|
B |-x-|---|---|---|---|
G |---|-x-|---|---|---|
D |---|---|-x-|---|---|
A |---|---|-x-|---|---|
E |-x-|---|---|---|---|
A#m
A#m
e |-x-|---|---|---|---|
B |---|-x-|---|---|---|
G |---|---|-x-|---|---|
D |---|---|-x-|---|---|
A |-x-|---|---|---|---|
E |---|---|---|---|---|
C
C
e |---|---|-x-|---|---|
B |-x-|---|---|---|---|
G |---|---|---|---|---|
D |---|-x-|---|---|---|
A |---|---|-x-|---|---|
E |---|---|---|---|---|
When it's time to live and let die, and you can't get another try Fmaj
Fmaj
e |-x-|---|---|---|---|
B |-x-|---|---|---|---|
G |---|-x-|---|---|---|
D |---|---|-x-|---|---|
A |---|---|-x-|---|---|
E |-x-|---|---|---|---|
A#m
A#m
e |-x-|---|---|---|---|
B |---|-x-|---|---|---|
G |---|---|-x-|---|---|
D |---|---|-x-|---|---|
A |-x-|---|---|---|---|
E |---|---|---|---|---|
C
C
e |---|---|-x-|---|---|
B |-x-|---|---|---|---|
G |---|---|---|---|---|
D |---|-x-|---|---|---|
A |---|---|-x-|---|---|
E |---|---|---|---|---|
Fmaj
Fmaj
e |-x-|---|---|---|---|
B |-x-|---|---|---|---|
G |---|-x-|---|---|---|
D |---|---|-x-|---|---|
A |---|---|-x-|---|---|
E |-x-|---|---|---|---|
Something inside this heart has died, you're in ruins... CHORUS: e|------------------------------------------------------------------------------| B|------------------------------------------------------------------------------| G|--------- 55 ----77----555\-----33333333 55555555------------------ - --------| D|--- 33----55-----77----555\-----33333333 55555555-----------------------------| A|--- 33----33-----55----333\-----11111111 33333333-----------------------------| E|--- 11------------------------------------------------------------------------| e|------------------------------------------------------------------------------| B|------------------------------------------------------------------------------| G|--------- 55 ----77----555\-----33333333 55555555------------------ - --------| D|--- 33----55-----77----555\-----33333333 55555555-----------------------------| A|--- 33----33-----55----333\-----11111111 33333333-----------------------------| E|--- 11------------------------------------------------------------------------| e|------------------------------------------------------------------------------| B|------------------------------------------------------------------------------| G|--------- 55 ----77----555\-----33333333 55555555------------------ - --------| D|--- 33----55-----77----555\-----33333333 55555555-----------------------------| A|--- 33----33-----55----333\-----11111111 33333333-----------------------------| E|--- 11------------------------------------------------------------------------| e|------------------------------------------------------------------------------| B|------------------------------------------------------------------------------| G|--------- 55 ----77----555\-----33333333 55555555 33333333 5----- - ----------| D|--- 33----55-----77----555\-----33333333 55555555 33333333 5------------------| A|--- 33----33-----55----333\-----11111111 33333333 11111111 3------------------| E|--- 11------------------------------------------------------------------------| One, 21 guns Lay down your arms Give up the fight One, 21 guns Throw up your arms into the sky You and I | / slide up | \ slide down | h hammer-on | p pull-off | ~ vibrato | + harmonic | x Mute note ===============================================================================

Added On December 16th, 2013

SHARE

Comments

blog comments powered by Disqus

VERSIONS

ADVERTISEMENT