Green Day Tabs

Letterbomb - Broadway

1 versions

TAB

            -------------------------------------------------------------------------------
                             Letterbomb - Green Day(Broadway)
-------------------------------------------------------------------------------
Tabbed by:Pie Borderie

INFO-This version is the one from "American Idiot: The Original Broadway Cast Recording" since
I couldn't find a tab of it anywhere else. The 997 power chord on the BOTTOM 3 strings can also
be played as 442 on the 3rd 4th and 5th strings respectively. Sometimes this way is more convenient. 

ANECDOTES-This is an interesting one from the album most of the songs on here are either the same as 
the original (in terms of song key and notes played, not necessarily instrument wise.) or
they, in great broadway fashion, move all the notes up one or two frets. For example 
"Too Much Too Soon" starts 1 fret higher than the original then moves up another 2 frets and 
ends on the original fretting. This one however as far as I can tell is quite different 

ENJOY!


***********************************INTRO**************************************

e|---------------------------------------------------------------------------|
B|---------------------------------------------------------------------------|
G|---444---------------------333---------------------------------------------|
D|---xxx--LISTEN AND REPEAT--xxx---------------------------------------------|
A|---222---------------------222---------------------------------------------|
E|---------------------------------------------------------------------------|

******************************************************************************
******************************************************************************


***********************************VERSE**************************************
 Where have all the bastards gone...(0:22)    The dummy failed..(0:32)
 Where have all the riots gone..(0:43)        Whats in love...(0:53)
e|-------|---------------------------------|--------------------|------------|
B|-------|---------------------------------|--------------------|------------|
G|-------|---------9----6----9-------------|--8-----------------|------------|
D|-2-----|---------9----6----9----9----X2--|--8----6-----X2-----|------------|
A|-2-----|---------7----4----7----9--------|--6----6------------|------------|
E|-0-----|------------------------7--------|-------4------------|------------|
  PM First chord

 Flunkie along for the ride.(0:38)
 So strike the fucking match (0:59)    The Town bishop's an extortionist(1:07) 
e|--------------------------------|------------------------------------------|
B|--------------------------------|------------------------------------------|
G|-9------------------------------|--9----------------------------9---9------|
D|-9----4-----4-979-4-------------|--9---979--------4--979--------9-9-9-9----|
A|-7----4-----4-979-4-------------|--7---979--X2----4--979----X2--7-9-7-9----|
E|------2-----2-757-2-------------|------757--------2--757----------7---7----|

******************************************************************************
******************************************************************************

**********************************CHORUS**************************************
 It's not over..(1:18)     This city's burning..(1:28)
 It's not over (2:30)
e|-----------------------|---------------------------------------------------|
B|-----------------------|---------------------------------------------------|
G|------------9----------|-------------9--------12---------------9----6~---9-|
D|--9----4----9------X2--|--9----4-----9--------12----9-----4----9----6~---9-|
A|--9----4----7----------|--9----4-----7--------10----9-----4----7----4~---7-|
E|--7----2---------------|--7----2--------------------7-----2----------------|

******************************************************************************
(1:43) PLAY INTRO AND LISTEN TO TRACK FOR TIMING/RHYTHM
******************************************************************************

************************************MINI VERSE********************************
e|---------------------------------------------------------------------------|
B|---------------------------------------------------------------------------|
G|---888-444------777-333------888-444------9999-----------------------------|
D|---xxx-xxx--X2--xxx-xxx--X2--xxx-xxx--X2--xxxx--repeat final set until 1:58|
A|---666-222------555-111------666-222------7777-----------------------------|
E|---------------------------------------------------------------------------|

******************************************************************************
******************************************************************************

***********************************INTERLUDE+SOLO*****************************
 (1:58)                               You're not the jesus of suburbia..(2:21)
e|--------------------|------------------------------------------------------|
B|--------------------|--------<<<-------------------------------------------|
G|-------8---------9--|--------<<    

Added On July 7th, 2015

SHARE

Comments

blog comments powered by Disqus

ADVERTISEMENT