Green Day Tabs

Olivia Live

1 versions

TAB

            This is the tab for olivia which Green Day played live in Denver. 
is my first tab. Please no comments. Figure out the strumming patterns yourself.


INTRO

E---------------------------------------------------------------------------|
B---- 10--------------------------------------------------------------------|
G-----10--------------------------------------------------------------------|
A-----10--------------------------------------------------------------------|
D------8--------------------------------------------------------------------|
E---------------------------------------------------------------------------|

CHORUS x4
E---------------------------------------------------------------------------|
B----10---------------------------------------------------------------------|
G----10--------------7--------9---------------------------------------------|
A----10--------------8-------10---------------------------------------------|
D-----8--------------8-------10---------------------------------------------|
E--------------------6--------8---------------------------------------------|


VERSE

E---------------------------------------------------------------------------|
B----------------10---------------------------------------------------------|
G------7---------10----------------------7----------9-----------------------|
A------8---------10-----x3-----then------8---------10-----------------------|
D------8----------8----------------------8---------10-----------------------|
E------6---------------------------------6----------8-----------------------|


Repeat Chorus x4

end on
E---------------------------------------------------------------------------|
B----10------------10-------------------------------------------------------|
G----10-----9------10-------------------------------------------------------|
A----10----10------10-------------------------------------------------------|
D-----8----10-------8-------------------------------------------------------|
E-----------8---------------------------------------------------------------|    

Added On December 16th, 2013

SHARE

Comments

blog comments powered by Disqus

ADVERTISEMENT