Green Day Tabs

Stuck With Me

2 versions

TAB

            +++++++++++++++++++++++++++++++++++++++++++++++++++++++
-------------------------------------------------------
STUCK WITH ME = GREEN DAY
-------------------------------------------------------
+++++++++++++++++++++++++++++++++++++++++++++++++++++++
========================|
                        |
Song: Stuck with me     |
Album: Insomniac (1995) |
Tabber: Insomniac_123   |
Artist: Green Day       |
Tuning: Standard        |
=========================

Key:(Throughout)
_________________________________
|@@@@@@@@@@@@@@@@@@@@@@@@@@@@@@@|
| Key:                          |
| P.M. # (Palm Mute)            |
| x. Scratch                    |
| p. Pull-Off                   |
| h. Hammer-On                  |
| v. Vibrato                    |
| /. Forward Slide              |
| \. Downward Slide             |
|_______________________________|
@@@@@@@@@@@@@@@@@@@@@@@@@@@@@@@@@


Intro:

E||-----------------------------------||
B||-----------------------------------||
E||-88888-888-------------------------|| (x2)
D||-88888-888-10-8-66-6666666-6666666-||
A||-66666-666-10-8-66-6666666-6666666-||
E||------------8-6-44-4444444-4444444-||

Verse:

E||-------------------|----------------------------------|-------------------||
B||-------------------|----------------------------------|-------------------||
G||-8---------8888888-|----------------------------------|-------------------||
D||-8-8888888-8888888-|-88-8888-8888888-6-66666-8-888888-|-6-66666-8-8888888-||
A||-6-6666666-6666666-|-88-8888-8888888-6-66666-8-888888-|-6-66666-8-8888888-||
E||-------------------|-66-6666-6666666-4-44444-6-666666-|-4-44444-6-6666666-||
P.M.  #######

E||-------------------|----------------------------------|-------------------||
B||-------------------|----------------------------------|-------------------||
G||-8-8888888-8888888-|----------------------------------|-------------------||
D||-8-8888888-8888888-|-88-8888-8888888-6-66666-8-888888-|-6-66666-8-8888888-||
A||-6-6666666-6666666-|-88-8888-8888888-6-66666-8-888888-|-6-66666-8-8888888-||
E||-------------------|-66-6666-6666666-4-44444-6-666666-|-4-44444-6-6666666-||

Chorus:

E||----------------------------------||
B||----------------------------------|| (x3)
G||-5-55555-55-------8-88888-8888888-||
D||-5-55555-55-6-666-8-88888-8888888-||
A||-3-33333-33-6-666-6-66666-6666666-||
E||------------4-444-----------------||

Then Play:

E||-------------------||
B||-------------------||
G||-------------------||
D||-66666666-88888888-||
A||-66666666-88888888-||
E||-44444444-66666666-||

Post Chorus:

E||-----------------------------------||
B||-----------------------------------||
E||-88888-888-------------------------|| (x2)
D||-88888-888-10-8-66-6666666-6666666-||
A||-66666-666-10-8-66-6666666-6666666-||
E||------------8-6-44-4444444-4444444-||

Verse 2:

E||-------------------|----------------------------------|-------------------||
B||-------------------|----------------------------------|-------------------||
G||-8---------8888888-|----------------------------------|-------------------||
D||-8-8888888-8888888-|-88-8888-8888888-6-66666-8-888888-|-6-66666-8-8888888-||
A||-6-6666666-6666666-|-88-8888-8888888-6-66666-8-888888-|-6-66666-8-8888888-||
E||-------------------|-66-6666-6666666-4-44444-6-666666-|-4-44444-6-6666666-||
P.M.  #######

E||-------------------|----------------------------------|-------------------||
B||-------------------|----------------------------------|-------------------||
G||-8-8888888-8888888-|----------------------------------|-------------------||
D||-8-8888888-8888888-|-88-8888-8888888-6-66666-8-888888-|-6-66666-8-8888888-||
A||-6-6666666-6666666-|-88-8888-8888888-6-66666-8-888888-|-6-66666-8-8888888-||
E||-------------------|-66-6666-6666666-4-44444-6-666666-|-4-44444-6-6666666-||

Chorus 2:

E||----------------------------------||
B||----------------------------------|| (x3)
G||-5-55555-55-------8-88888-8888888-||
D||-5-55555-55-6-666-8-88888-8888888-||
A||-3-33333-33-6-666-6-66666-6666666-||
E||------------4-444-----------------||

E||-------------------||
B||-------------------||
G||-------------------||
D||-66666666-88888888-||
A||-66666666-88888888-||
E||-44444444-66666666-||

Bridge:

E||-----------------------------------||
B||-----------------------------------||
E||-88888-888-------------------------|| (x4)
D||-88888-888-10-8-66-6666666-6666666-||
A||-66666-666-10-8-66-6666666-6666666-||
E||------------8-6-44-4444444-4444444-||

Interlude: (Bass Solo)

E||--------------------|------------------||
B||--------------------|------------------||
G||--------------------|------------------||
D||-xxxxxxxx-xxxxxxxx--|xxxxxxxx-xxxxxxxx-||
A||-xxxxxxxx-xxxxxxxx--|xxxxxxxx-xxxxxxxx-||
E||-xxxxxxxx-xxxxxxxx--|xxxxxxxx-xxxxxxxx-||

Chorus 3:

E||----------------------------------||
B||----------------------------------|| (x3)
G||-5-55555-55-------8-88888-8888888-||
D||-5-55555-55-6-666-8-88888-8888888-||
A||-3-33333-33-6-666-6-66666-6666666-||
E||------------4-444-----------------||

Then Play:

E||-------------------||
B||-------------------||
G||-------------------||
D||-66666666-88888888-||
A||-66666666-88888888-||
E||-44444444-66666666-||

Outro:

E||-----------------------------------||
B||-----------------------------------||
E||-88888-888-------------------------|| (x2)
D||-88888-888-10-8-66-6666666-6666666-||
A||-66666-666-10-8-66-6666666-6666666-||
E||------------8-6-44-4444444-4444444-||

-----------------------------------------------

There it is!
I hope you like it, I believe it is correct. If its not however, tell me and I’ll see 
I can do.
A great Classic from the album Insomniac.
I'll include lyrics soon!    

Added On December 16th, 2013

SHARE

Comments

blog comments powered by Disqus

VERSIONS

ADVERTISEMENT