Green River Tabs

Rehab Doll

1 versions

TAB

            This tab is a work in progress and will be regularly updated. If you can help me tab 
by Green River, please do!

Intro Riff:
|x---------------|----------------|----------------||x---------------|----------------|----------------|
|x---------------|----------------|----------------||x---------------|----------------|----------------|
|x---------------|7-------7-------|797-------------||x---------------|7-------7-------|797-------------|
|2---------------|----9-----------|----9-8-7-5-7---||2---------------|----9-----------|----9-8-7-------|
|2---------------|----------------|----------------||2---------------|----------------|----------------|
|0---------------|----------------|----------------||0---------------|----------------|----------------|

|x---------------|----------------|----------------||x---------------|----------------|----------------|
|x---------------|----------------|----------------||x---------------|----------------|----------------|
|x---------------|7-------7-------|797-------------||x---------------|7---9---7-------|797-------------|
|2---------------|----9-----------|----9-8-7-5-7---||2---------------|----------------|----9-8-7-------|
|2---------------|----------------|----------------||2---------------|----------------|----------------|
|0---------------|----------------|----------------||0---------------|----------------|----------------|    

Added On December 16th, 2013

SHARE

Comments

blog comments powered by Disqus

ADVERTISEMENT