Greg Laswell Tabs

And Then You

1 versions

TAB

            -------------------------------------------------------------------------------
			     AND THEN YOU - Greg Laswell
-------------------------------------------------------------------------------
Tabbed by: mooon


Tuning: standard

it's electric in the song- i'm tabbing it on my acoustic.
you can play it along with the track, it sounds about right


          all my thoughts they spin me round
e|---------------------------------------------------------------|
B|--------------------------0-----0----0h1-0---------------------|
G|--0-----0-----2-----2------------------------------------------|
D|----2-----2-----0-----0-----0-----0----------------------------|
A|---------------------------------------------------------------|
E|--0-----0-----2-----2-----3-----3----3-------------------------|

         and how my thoughts they let me down
e|---------------------------------------------------------------|
B|--------------------------0-----0----0h1-0---------------------|
G|--0-----0-----2-----2------------------------------------------|
D|----2-----2-----0-----0-----0-----0----------------------------|
A|---------------------------------------------------------------|
E|--0-----0-----2-----2-----3-----3----3-------------------------|

         and how my thoughts they spin me round
e|---------------------------------------------------------------|
B|--------1-0---------------0-----0----0h1-0---------------------|
G|--0-----------2-----2------------------------------------------|
D|----2-----------0-----0-----0-----0----------------------------|
A|---------------------------------------------------------------|
E|--0-------3---2-----2-----3-----3----3-------------------------|


        and how my thoughts they let me down
e|---------------------------------------------------------------|
B|--------------------------0-----0----0----0--------------------|
G|--0-----0-----2-----2------------------------------------------|
D|----2-----2-----0-----0-----0-----0----0----0------------------|
A|---------------------------------------------------------------|
E|--0-----0-----2-----2-----3-----3----3----3--------------------|



       and then there's you, then there's you
e|---------------3----3----3---3----3----3----3----3-------------|
B|-----------------1----1----1---1----0----0----0----0-----------|
G|---------------------------------------------------------------|
D|---------------------------------------------------------------|
A|---------------------------------------------------------------|
E|---------------------------------------------------------------|

       and then there's you, there's you
e|------------3---------------2----0-----------------------------|
B|--------------1------------------------------------------------|
G|----------------------------2----0----0----0-------------------|
D|----------------------------------------2----2-----------------|
A|---------------------------------------------------------------|
E|----------------------------2----0----0----0-------------------|    

Added On December 16th, 2013

SHARE

Comments

blog comments powered by Disqus

ADVERTISEMENT