Greyhoundz Tabs

Karmic

1 versions

TAB

            Karmic Tab by Greyhoundz


                      "KARMIC" BY GREYHOUNDZ
                    transcribed by: freongang
               visit me at: freongang_81@yahoo.com
                    freongang_08@yahoo.com

 dropped D

intro:  as many times
D|--------------------------|
A|---------9h10-------------|
F|----9h10------9h7---------|
C|--9-----------------------|
G|--------------------------|
D|--------------------------|

D|------------------------------9h10-------|
A|---------9h10------------9h10------------|
F|----9h10-------9h7-----------------------|
C|--9--------------------------------------|
G|-----------------------------------------|
D|-----------------------------------------|

 Chorus:
D|-----------------  -------------------------------------|
A|-----------------  -11-11-11-11-14-14-14-14-12-12-12-12-|
F|-----------------  -9--9--9--9--12-12-12-12-10-10-10-10-|
C|-2-2-2-2-2-2-2-2-  -9--9--9--9--12-12-12-12-10-10-10-10-|
G|-2-2-2-2-2-2-2-2-  -------------------------------------|
D|-0-0-0-0-0-0-0-0-  -------------------------------------|    

Added On December 4th, 2013

SHARE

Comments

blog comments powered by Disqus

ADVERTISEMENT