Grizzly Bear Tabs

Foreground

1 versions

TAB

            Epic, beautiful song by Grizzly Bear. Had to be converted.

It's super easy but you should pay attention to the order the high e and b strings
are played in the tab,
(you would understand by listening as well)


e|2-2-2-2-2-2-2-2-2-2-2-2-2-2-2-2-2-2-2-2-2-2-2-2-2-.....----------------------|
B|-3-3-3-3-3-3-3-3-3-3-3-3-3-3-3-3-3-3-3-3-3-3-3-3-3-.....---------------------|
G|-----------------------------------------------------------------------------|
D|-----------------------------------------------------------------------------|
A|-----------------------------------------------------------------------------|
E|-----------------------------------------------------------------------------|


e|2-2-2-2--2--2-2-2-2--2--2-2--2--2-2--2---2--2-2-2-2--2---2--2-2--2......-----|
B|-3---3--3-3--3-3-3--3-3--3--3-3--3--3-3-3-3--3-3-3--3-3-3-3--3--3-3......----|
G|-----------------------------------------------------------------------------|
D|---0-------4-----------------------0-------4---------------------------------|
A|-------2-----------0-------0-----------2-----------0-------0-----------------|
E|-----------------------2-------2-----------------------2-------2-------------|
     take on another shift...

e|2-2-2-2--2--2-2-2-2--2--2-2--2--2-2--2---2--2-2-2-2--2---2--2-2--2---2-2-2---|.
B|-3---3--3-3--3-3-3--3-3--3--3-3--3--3-3-3-3--3-3-3--3-3-3-3--3--3-3-3-3-3----|..
G|-----------------------------------------------------------------------------|
D|---0-------4-----------------------0-------4---------------------------------|
A|-------2-----------0-------0-----------2-----------0-------0-----------------|
E|-----------------------2-------2-----------------------2-------2---0---------|

Foreground Lyrics

Take on another shift
Palms in the middle, hands in the middle
Work out another rift
Something is muffled, another juggle

This is a foreground
It is a foreground

A cross country miss
Take direction, can’t connect it
I’m afraid this is
Ten detected, nine in a wreck and…
A little jetty fight
Pattern evolving, motion insolvent
Something about this might
Take all evening,
I’ll just be cleaning

This is a foreground
It is a foreground    

Added On December 16th, 2013

SHARE

Comments

blog comments powered by Disqus

ADVERTISEMENT