Guster Tabs

Long Way Down

1 versions

TAB

            Artist: Guster
Song: Long Way Down
Album: Keep it Together

Standard Tuning:  EADGBE

A great song from Guster.  Thjs is based on tabs found at:  http://www.911tabs.com/link/?5338624
http://www.911tabs.com/link/?3674613

I added the bridge and repeated riff.  Let me know if you have any comments:
  American_raza@hotmail.com  


This is the main riff that hes playing for the whole song. 
Listen to the song to figure out the strumming patterns.


        C                   Gm                
E|--0-----------||--3-----------||                            
B|--1-----------||--3-----------|| 
G|--0-----------||--3-----------||     Repeat 1x
D|--2-----------||--5-----------|| 
A|--3-----------||--X-----------|| 
E|--X-----------||--X-----------|| 

Then play this the third time

       C                    Gm                Bbadd9         
E|--0-----------||--3-----------||--1-----------|| 
B|--1-----------||--3-----------||--3-----------||                             
G|--0-----------||--3-----------||--3-----------||     
D|--2-----------||--5-----------||--1-----------||                 
A|--3-----------||--X-----------||--1-----------||                       
E|--X-----------||--X-----------||--X-----------||


Guitar/Keyboard Riff: 
                                           
E|---------------------------------------------------------|| 
B|---------------------------------------------------------||                             
G|-------------12-----------15----14-----------------------||     
D|-15----12----------10---------------12-------------------||                 
A|---------------------------------------------------------||                       
E|---------------------------------------------------------||


Bridge:  

        D                   C             G              Bb
E|--0-----------||--3-----------||--1-----------||----------------|| 
B|--1-----------||--3-----------||--3-----------||----------------||                             
G|--0-----------||--3-----------||--3-----------||----------------||     
D|--2-----------||--5-----------||--1-----------||----------------||                 
A|--3-----------||--X-----------||--1-----------||----------------||                       
E|--X-----------||--X-----------||--X-----------||----------------||



       D                  C                G            Bb
E|--0-----------||--3-----------||--1-----------||----------------|| 
B|--1-----------||--3-----------||--3-----------||----------------||                             
G|--0-----------||--3-----------||--3-----------||----------------||     
D|--2-----------||--5-----------||--1-----------||----------------||                 
A|--3-----------||--X-----------||--1-----------||----------------||                       
E|--X-----------||--X-----------||--X-----------||----------------||


F--D--G--C--A#--A--D



---------------

Song Lyrics

I drempt I was dead sleeping in your bed
Floated up from the
ground and looked down
Then finally I could see completely
Heard the angels' song
I know what you are
I could never tell
They sang what you are


This far away, you're a miniature to me
Are you sorry you almost disappeared
Now I know what you are
I could never tell
They sang what you are


Now the notes are fading
and everything is turned around
And I can't help but think it
Its a long way down
And everything is changing
and everything is turned around
And I can't help but thinking
its a long way down
Now I know what you are
I could never tell
They sang what you are    

Added On December 16th, 2013

SHARE

Comments

blog comments powered by Disqus

ADVERTISEMENT