Haken Tabs

Nobody

1 versions

TAB

            chapter #1 (the intro, the interludes and verses) is built around the
Dm chord (I marked sort of "pauses" with (P) letter, where you're not
supposed to play the 3rd string on the 7th fret, but I actually play
it, for it sounds nice. It's not authentic though.)

please pay attention that pre-chorus 1 and 2 have some different
playing features. the ones are at the "But you still tell me", 
"My time has passed", and "Of one more chance, one more chance"


    Still       I feel              the pain
E|--------5-------------------5-----------------------------------|
H|---8----------8---5-----6---------5----6------------------------|
G|-----7-----7----7---(P)---7-----7----7---(P)--------------------|
D|----------------------------------------------------------------|
A|----------------------------------------------------------------|
E|----------------------------------------------------------------|

     from       that day
E|--------5-------------------5-----------------------------------|
H|---8----------8---5-----6---------5h6p5----5h6------------------|
G|-----7-----7----7---(P)---7-----7-------7-----------------------|
D|----------------------------------------------------------------|
A|----------------------------------------------------------------|
E|----------------------------------------------------------------|

and so on

chapter #2 (the pre-chorus - it will be different at the second time
as I described before)

    Still            I'm             year...        ...ning
E|-----------------------------------------------------------------|
H|-----------------------------------------------------------------|
G|-----------------------------------------------------------------|
D|-----------------------------------------------------------------|
A|---8---------------7---------------10--------------7-------------|
E|---6---6-6-6-6-6---6---6-6-6-6-6---6---6-6-6-6-6---6---6-6-6-6-6-|

 to claim            back           what's          mine
E|-----------------------------------------------------------------|
H|-----------------------------------------------------------------|
G|-----------------------------------------------------------------|
D|-----------------------------------------------------------------|
A|---8---------------7---------------10--------------7-------------|
E|---5---5-5-5-5-5---5---5-5-5-5-5---5---5-5-5-5-5---5---5-5-5-5-5-|


    Still            I'm             clai...        ...ming
E|-----------------------------------------------------------------|
H|-----------------------------------------------------------------|
G|-----------------------------------------------------------------|
D|-----------------------------------------------------------------|
A|---8---------------7---------------10--------------7-------------|
E|---6---6-6-6-6-6---6---6-6-6-6-6---6---6-6-6-6-6---6---6-6-6-6-6-|


 to dreams           that            won't          die
E|-----------------------------------------------------------------|
H|-----------------------------------------------------------------|
G|-----------------------------------------------------------------|
D|-----------------------------------------------------------------|
A|---8---------------7---------------10--------------7-------------|
E|---5---5-5-5-5-5---5---5-5-5-5-5---8---8-8-8-8-8---8---8-8-8-8-8-|


    Still            I'm             drea...        ...ming
E|-----------------------------------------------------------------|
H|-----------------------------------------------------------------|
G|-----------------------------------------------------------------|
D|-----------------------------------------------------------------|
A|---8---------------7---------------10--------------7-------------|
E|---6---6-6-6-6-6---6---6-6-6-6-6---6---6-6-6-6-6---6---6-6-6-6-6-|


    of              one            more             chance
E|-----------------------------------------------------------------|
H|-----------------------------------------------------------------|
G|-----------------------------------------------------------------|
D|-----------------------------------------------------------------|
A|---8---------------7---------------10--------------7-------------|
E|---5---5-5-5-5-5---5---5-5-5-5-5---5---5-5-5-5-5---5---5-5-5-5-5-|


   but you           still           tell           me
E|-----------------------------------------------------------------|
H|-----------------------------------------------------------------|
G|-----------------------------------------------------------------|
D|-----------------------------------------------------------------|
A|---8---------------7---------------10--------12----7-------------|
E|---6---6-6-6-6-6---6---6-6-6-6-6---6---6-6-6----6--6---6-6-6-6-6-|


    my              time            has             passed
E|-----------------------------------------------------------------|
H|-----------------------------------------------------------------|
G|-----------------------------------------------------------------|
D|-----------------------------------------------------------------|
A|---8---------------7---------------10--------------7--7-7-7--5-5-|
E|---5---5-5-5-5-5---5---5-5-5-5-5---8---8-8-8-8-8---8--8-8-8--8-8-|



chapter #3 (the chorus)

 Give     me  back my     right
E|---x----x----x--x-------x----x----x--x--x-------------------------|
H|---x----x----x--x-------x----x----x--x--x-------------------------|
G|---7----7----7--7-------x----x----x--x--x-------------------------|
D|---7----7----7--7-------8----8----8--8--8-------------------------|
A|---5----5----5--5-------8----8----8--8--8-------------------------|
E|---x----x----x--x-------6----6----6--6--6-------------------------|


 to prove that I can      fight

E|---x----x----x--x-------x----x----x--x--x------------------------|
H|---x----x----x--x-------x----x----x--x--x------------------------|
G|---x----x----x--x-------6----6----6--6--6------------------------|
D|---3----3----3--3-------6----6----6--6--6------------------------|
A|---3----3----3--3-------4----4----4--4--4------------------------|
E|---1----1----1--1-------x----x----x--x--x------------------------|


     let  me  show them   all
E|---x----x----x--x-------x----x----x--x--x-------------------------|
H|---x----x----x--x-------x----x----x--x--x-------------------------|
G|---7----7----7--7-------x----x----x--x--x-------------------------|
D|---7----7----7--7-------8----8----8--8--8-------------------------|
A|---5----5----5--5-------8----8----8--8--8-------------------------|
E|---x----x----x--x-------6----6----6--6--6-------------------------|



  tonight   can be my    night
E|---x----x----x--x-------x----x----x--x--x------------------------|
H|---x----x----x--x-------x----x----x--x--x------------------------|
G|---x----x----x--x-------6----6----6--6--6------------------------|
D|---3----3----3--3-------6----6----6--6--6------------------------|
A|---3----3----3--3-------4----4----4--4--4------------------------|
E|---1----1----1--1-------x----x----x--x--x------------------------|


chapter #1 again (verse 2)

chapter #2 (the pre-chorus 2, a little bit different one)


    Still            I'm             year...        ...ning
E|-----------------------------------------------------------------|
H|-----------------------------------------------------------------|
G|-----------------------------------------------------------------|
D|-----------------------------------------------------------------|
A|---8---------------7---------------10--------------7-------------|
E|---6---6-6-6-6-6---6---6-6-6-6-6---6---6-6-6-6-6---6---6-6-6-6-6-|

 to claim            back           what's          mine
E|-----------------------------------------------------------------|
H|-----------------------------------------------------------------|
G|-----------------------------------------------------------------|
D|-----------------------------------------------------------------|
A|---8---------------7---------------10--------------7-------------|
E|---5---5-5-5-5-5---5---5-5-5-5-5---5---5-5-5-5-5---5---5-5-5-5-5-|

    Still            I'm             clai...        ...ming
E|-----------------------------------------------------------------|
H|-----------------------------------------------------------------|
G|-----------------------------------------------------------------|
D|-----------------------------------------------------------------|
A|---8---------------7---------------10--------------7-------------|
E|---6---6-6-6-6-6---6---6-6-6-6-6---6---6-6-6-6-6---6---6-6-6-6-6-|


 to dreams           that            won't          die
E|-----------------------------------------------------------------|
H|-----------------------------------------------------------------|
G|-----------------------------------------------------------------|
D|-----------------------------------------------------------------|
A|---8---------------7---------------10--------------7-------------|
E|---5---5-5-5-5-5---5---5-5-5-5-5---8---8-8-8-8-8---8---8-8-8-8-8-|


    Still            I'm             drea...        ...ming
E|-----------------------------------------------------------------|
H|-----------------------------------------------------------------|
G|-----------------------------------------------------------------|
D|-----------------------------------------------------------------|
A|---8---------------7---------------10--------------7-------------|
E|---6---6-6-6-6-6---6---6-6-6-6-6---6---6-6-6-6-6---6---6-6-6-6-6-|


   of one            more            chance        one more chance
E|-----------------------------------------------------------------|
H|-----------------------------------------------------------------|
G|-----------------------------------------------------------------|
D|-----------------------------------------------------------------|
A|---8---------------7---------------10-------------10--8--7-------|
E|---5---5-5-5-5-5---5---5-5-5-5-5---5---5-5-5-5-5-----5--5--5-5---|

   but you           still           tell           me
E|-----------------------------------------------------------------|
H|-----------------------------------------------------------------|
G|-----------------------------------------------------------------|
D|-----------------------------------------------------------------|
A|---8---------------7---------------10--------12----7-------------|
E|---6---6-6-6-6-6---6---6-6-6-6-6---6---6-6-6----6--6---6-6-6-6-6-|


    my              time            has             passed
E|-----------------------------------------------------------------|
H|-----------------------------------------------------------------|
G|-----------------------------------------------------------------|
D|-----------------------------------------------------------------|
A|---8---------------7---------------10--------------7--7-7-7--5-5-|
E|---5---5-5-5-5-5---5---5-5-5-5-5---8---8-8-8-8-8---8--8-8-8--8-8-|

chapter #3 (the chorus)

chapter #1 (the outro)    

Added On January 6th, 2014

SHARE

Comments

blog comments powered by Disqus

ADVERTISEMENT