Hal Leonard Tabs

Grand Finale

1 versions

TAB

            1-------------------------------|--3---0----------------------------------|
 2-------------------------------|----------3---0--------------------------|
 3-------------------------------|------------------2----0-----------------|
 4-------2--2--0--0--------------|-----------------------------------------|
 5-------------------2---2-------|-----------------------------------------|
 6-0--0----------------------0---|-----------------------------------------|


 1-------------------------------|--3---0----------------------------------|
 2-------------------------------|----------3---0---2----0-----------------|
 3-------------------------------|-----------------------------------------|
 4-------2--2--0--0--------------|-----------------------------------------|
 5-------------------2---2---0---|-----------------------------------------|
 6-0--0--------------------------|-----------------------------------------|

 1-------------------------------|----3---0--------------------------------|
 2-------------------------------|------------3---0------------------------|
 3-------2--2---0--0-------------|--------------------2----0---------------|
 4---------------------2---2-----|-----------------------------------------|
 5-0---0------------------------0|-----------------------------------------|
 6-------------------------------|-----------------------------------------|

 1--------------------------------|---3---0----------------------------------|
 2--------------------------------|------------3----0------------------------|
 3--------------------------------|----------------------2----0--------------|
 4--------2---2---0--0------------|------------------------------------------|
 5-----------------------2---2----|------------------------------------------|
 6-0--0-------------------------0-|------------------------------------------|

  that's as far as i can remember, i might finish this later so keep tuned.    

Added On December 16th, 2013

SHARE

Comments

blog comments powered by Disqus

ADVERTISEMENT