Haste The Day Tabs

Chorus Of Angels

1 versions

TAB

            Haste the day
                             Chorus of angels
Tuning

Drop C


p - pull off
h - hammer on
. - palm mute
* - harmonic
/ - slide up
\ - slide down

Intro/ verse 1
1---------------------------------------------------------------------------|
2---------------------------------------------------------------------------|
3---------------------------------------------------------------------------|
4---------------------------------------------------------------------------|
5-0-00000-00-00-0-000000-00000-00-00-0-000000-00000-00-00-0-000000-00000----|
6-0-00000-00-00-0-000000-00000-00-00-0-000000-00000-00-00-0-000000-00000----|
  . ..... .. .. . ...... ..... .. .. . ...... ..... .. .. . ...... .....
Play over but for the transition from intro to verse do this
Pull off of 1 to 0

1---------------------------------------------------------------------------|
2---------------------------------------------------------------------------|
3---------------------------------------------------------------------------|
4---------------------------------------------------------------------------|
5-1p0000--------------------------------------------------------------------|
6-1p0000--------------------------------------------------------------------|
    ....

chorus
1----------------------------------------------------------------------------|
2----------------------------------------------------------------------------|
3--------------------5-5-5-5-55----------3-3-3-3-33-3333333/5-5-5-5-55-------|
4-0-0-0-00-0-0000000-5-5-5-5-55-3333-555-3-3-3-3-33-3333333/5-5-5-5-55-33-55-|
5-0-0-0-00-0-0000000-3-3-3-3-33-3333-555-1-1-1-1-11-1111111/3-3-3-3-33-33-55-|
6-0-0-0-00-0-0000000------------3333-555-------------------------------33-55-|

     I saw the angels sing along to wake up the beautiful sleeping world.
            Their voices will rise to test the strength of man.
                   Wake up the beautiful sleeping world.


after chorus
1---------------------------------------------------------------------------|
2--------------------10-------------------13---------------------10---------|
3------7---9---10-----------7---9---10-------------7---9---10--------7-9-10-|
4----0---0---0----0------0----0---0----0---------8---8---8-----8----7-7-7---|
5-0-------------------------------------------------------------------------|
6-0-------------------------------------------------------------------------|
  .
do this twice
then

We will see the fire.
The skies will open up.
The clouds will burn red and our sins will forget us.
And time will not shake us.
Our hearts are made of gold.
These walls wonÂ’t over-take us.
These walls over-take us.

1---------------------------------------------------------------------------|
2---------------------------------------------------------------------------|
3---------------------------------------------------------------------------|
4---------------------------------------------------------------------------|
5-0-------------------------------------------------------------------------|
6-0----8----7--10----play over till the chorus------------------------------|

Play the chorus again
then play
  .

1---------------------------------------------------------------------------|
2---------------------------------------------------------------------------|
3---------------------------------------------------------------------------|
4---------------------------------------------------------------------------|
5-0-------------------------------------------------------------------------|
6-0----8----7--10----play over till the chorus------------------------------|

then play another chorus
then fade out with the intro/verse1 behind another chorus

1---------------------------------------------------------------------------|
2---------------------------------------------------------------------------|
3---------------------------------------------------------------------------|
4---------------------------------------------------------------------------|
5-0-00000-00-00-0-000000-00000-00-00-0-000000-00000-00-00-0-000000-00000----|
6-0-00000-00-00-0-000000-00000-00-00-0-000000-00000-00-00-0-000000-00000----|
sing the lyrics with this playing instead of the actual chorus guitar
then do some crazy wierd guitar at the end .

THE END    

Added On December 16th, 2013

SHARE

Comments

blog comments powered by Disqus

ADVERTISEMENT