Hatebreed Tabs

Outro

1 versions

TAB

            Hatebreed - Outro (on the perseverance album)
CGCFAD tuning
e---------------------------|
b---------------------------|
g---------------------------|
d-4--1-1--1-1-1--0--3-1-1---|
a-4--1-1--1-1-1--0--3-1-1---|
e-4--1-1--1-1-1--0--3-1-1---|   (x4)

e--------------|
b--------------|
g--------------|
d-5-4-0--4-3-1-|
a-5-4-0--4-3-1-|
e-5-4-0--4-3-1-| (x1)
Well its that simple 100% no doubt.
Rate and comment please!    

Added On December 16th, 2013

SHARE

Comments

blog comments powered by Disqus

ADVERTISEMENT